Song name
# A B C D E F G H I J K L M N O P Q R S T U V W X Y Z

Brett Dennen - The One Who Loves You The Most tab

Brett Dennen
The One Who Loves You The Most
So Much More
http://www.brettdennen.com/

Tabbed by: Adam D

New tune I heard yesterday, pretty catchy. Feel free to comment about any mistakes 
the lyrics.

Tune  step down.

Intro/Verse

When the sky is falling from above you

	C		G/D*    Am       G
e|-------00----0--------3------000--------------------------|
b|-------11----1--------3------111----0---------------------|
g|------------------------------2-2-2----0----         Repeat--| 3x
d|-------------------------------------------------------------|
a|-----3---------------3/5----0------0-------------------------|
e|---------------------------------------3---------------------|

Chorus

       I will be the one who loves you the most.

	F	          G           C
e|-------1---------------3-----------0---0---0-----------|
b|-------1---------------3-----------1---1---1-----------|
g|-------2---------------4-----------2---2---2-----------|   Sometimes repeat,
d|-------3---------------5-------------------------------|    Sometimes go back
a|-------3---------------5-------3------------3----------|    to verse lick
e|-------1---------------3-------------------------------|


Chords

C               G/D           Am              G
When the sky is falling from above you
And the wind is raging from the coast
And you want someone who truly loves you
F             G                      C
I will be the one who loves you the most


When the masquerade and burlesqued balls
Become too ordinary to boost
You complain about the parade and curtain calls
I will be the one who loves you the most
Yeah, I will be the one who loves you the most

When the women with their stolen graces
Dont invite you to play host
To their daughters with fake faces
I will be the one who loves you the most


When all the debutantes desert you
And all the doorways are all closed
And the harlequins have hurt you
I will be the one who loves you the most
I will be the one who loves you the most

When your suitors sneering swank beside you
And leave you hallow like a ghost
And you just want somebody to confide to
I will be the one who loves you the most
I will be the one who loves you the most

See, when you forgive your imperfections
And youve auctioned all your clothes
And look to see your true reflection
You will be the one who loves you the most
You will be the one who loves you the most
You will be the one who loves you the most


Enjoy!
Adam
Tap to rate this tab
# A B C D E F G H I J K L M N O P Q R S T U V W X Y Z