Song name
# A B C D E F G H I J K L M N O P Q R S T U V W X Y Z

Brett Dennen - So Long Sweet Misery tab

Help us improve GuitareTab! Take a short survey!
Tabbed By: Andrew
Email: asturtz@gmail.com
-Capo 9th Fret-

e|-------------------|
B|-------------------|
G|----0-----2-----0--|
D|---2-----0-----0---|
A|--3-----0-----2----|   Repeats throughout song.
E|-0-----5-----3-----|

I don't know the riff that goes in between the verses but I have this little riff which 
on the end of the last two verses.

e|-----------------------|
B|-----------------------|
G|-----0----0-----0----0-|
D|----0----4-----5----4--|
A|---2----2-----2----2---|
E|--3----3-----3----3----| Then back into it.
Related for So Long Sweet Misery tab