Song name
# A B C D E F G H I J K L M N O P Q R S T U V W X Y Z

Brett Dennen - All We Have tab

-------------------------------------------------------------------------------
			     ALL WE HAVE - Brett Dennen
-------------------------------------------------------------------------------
Tabbed by:  Brian Yeager
Email: fucfacejones@aol.com

Tuning: Standard

Intro and Verse
e|-----------------5-------------------------------------------------------|
B|-----------5-----5-------------------------------------------------------|
G|-------2---------6-------------------------------------------------------|
D|---2h4-------7---7--------4-7--------------------------------------------|
A|-----------------5----4h7------2p0---------------------------------------|
E|-2-----------------------------------------------------------------------|

Chorus
e|---5-----------2---------------------------------------------------------|
B|---5-----9-----3---------------------------------------------------------|
G|---6-----9-----4---------------------------------------------------------|
D|---7-----9-----4---------------------------------------------------------|
A|---5-----------2---------------------------------------------------------|
E|-------------------------------------------------------------------------|

"...rise above the madness"
e|-------------------------------------------------------------------------|
B|-------------------------------------------------------------------------|
G|-----------2--------2----------------------------------------------------|
D|---2---4------2--4---------and so on-------------------------------------|
A|-------------------------------------------------------------------------|
E|-------------------------------------------------------------------------|

| /  slide up
| \  slide down
| h  hammer-on
| p  pull-off
| ~  vibrato
| +  harmonic
| x  Mute note
===============================================================================
Tap to rate this tab
# A B C D E F G H I J K L M N O P Q R S T U V W X Y Z