Song name
# A B C D E F G H I J K L M N O P Q R S T U V W X Y Z

Brett Younker - All Things New tab

All Things New - Tab

Tuning: Standard

Capo: 1

Note: I couldn't tab how guitar I picks throughout the chorus
and second verse because it was too difficult for me to hear 
the pattern with Brett singing along at the same time.  My 
suggestion is to just pick the chords to your liking.  Also,
do forgive me if this tab is confusing.  I tried, and there
weren't any other tabs for this song that I could find.


[Verse I (Goes on until first chorus)]
[Guitar I]
E|-7----------------------------------------------------------|
B|---5-8------------------------------------------------------|
G|------------------------------------------------------------|
D|------------------------------------------------------------|
A|------------------------------------------------------------|
E|------------------------------------------------------------|
[Chords]
[Guitar II (Strummed)]
G, Am, C, Em, D, C
_______________________

[Chorus I]
[Guitar I (Picked)]
[Guitar II (Strummed)]
G, C, Em, D, C, D, G

[After chorus I]
[x4]
[Guitar II]
E|-7----------------------------------------------------------|
B|---5-8------------------------------------------------------|
G|------------------------------------------------------------|
D|------------------------------------------------------------|
A|------------------------------------------------------------|
E|------------------------------------------------------------|

[x1]
[Guitar I]
E|------------------------------------------------------------|
B|------------------------------------------------------------|
G|---5-4---4---7-5-4---4--------------------------------------|
D|-5-----5---5-------5---5------------------------------------|
A|------------------------------------------------------------|
E|------------------------------------------------------------|
_______________________


[Verse II]
[Guitar I (Picked)]
Guitar II (Strummed)]
G, Am, C, Em, D, C

_______________________


[Chorus I]
[Guitar I (Picked)]
[Guitar II (Strummed)]
G, C, Em, D, C, D, C=>(beginning of interlude)

_______________________
[Interlude]
[Guitar II]
E|--7-7-7-7-7-7-7-7-7-8-8-8-7-7-7-7-7-7-10-10-10-10-10-10-----|
B|------------------------------------------------------------|
G|------------------------------------------------------------|
D|------------------------------------------------------------|
A|------------------------------------------------------------|
E|------------------------------------------------------------|

[x2]
E|------------------------------------------------------------|
B|--8-8-8-7-7-7-----------------------------------------------|
G|--------------9-9-9-7-7-7-----------------------------------|
D|------------------------------------------------------------|
A|------------------------------------------------------------|
E|------------------------------------------------------------|
[Chords for Interlude]
[Guitar I]
C, G, Em, D

_______________________


[Bridge]
[x3]
[Guitar I (Picked)]
[Guitar II {Strummed only on third repeat]
C, G, Em, D

_______________________


[Chorus III]
[Guitar I (Picked at the beginning, then strummed)]
[Guitar II (Strummed)]
G, C, 
G, C,
Em, D,
Em, D,
Em, D, 
C, D, G=>(Beginning of outerlude)

______________________

[Outerlude]
[Guitar II]
E|--------7-7-7----------8-8-8-------7-7-7----------8-10-7----|
B|--8-8-8-------10-10-10-------8-8-8-------10-10-10-----------|
G|------------------------------------------------------------|
D|------------------------------------------------------------|
A|------------------------------------------------------------|
E|------------------------------------------------------------|

E|--------7-7-7----------8-8-8-------7-7-7----------8-10-7----|
B|--8-8-8-------10-10-10-------8-8-8-------10-10-10--------8--|
G|------------------------------------------------------------|
D|------------------------------------------------------------|
A|------------------------------------------------------------|
E|------------------------------------------------------------|
[Chords]
[x2]
[Guitar I]
G, Am, C
[End on G]

[End]
[x11 (fade out)]
[Guitar I]
E|-7----------------------------------------------------------|
B|---5-8------------------------------------------------------|
G|------------------------------------------------------------|
D|------------------------------------------------------------|
A|------------------------------------------------------------|
E|------------------------------------------------------------|


If there's any confusion, questions, or advice on how to 
improve it, please post a comment. Have fun playing, and 
please rate! -Rarrlow
Tap to rate this tab
# A B C D E F G H I J K L M N O P Q R S T U V W X Y Z