Song name
# A B C D E F G H I J K L M N O P Q R S T U V W X Y Z

Brian And Jenn Johnson - A Little Longer tab

-------------------------------------------------------------------------------
                        A Little Longer  Brian and Jenn Johnson
-------------------------------------------------------------------------------
Tabbed by: Radi8
E-mail:bobstermyang@gmail.com

This song is originally written for piano. This is my acoustic version for Guitar 1. I 
will be coming out with a 2nd Guitar Part.

Tuning:EADGBe

Intro:

e|-----|------|---------|------|-----|-------|-----|
B|---9-|-7--6-|---------|-7--6-|---9-|-7-6\4-|-4---|
G|-8---|---6--|-8--8h10-|------|-8---|-------|-----|
D|-----|------|---8-----|------|-----|-------|-----|
A|-6---|------|-6-------|------|-----|-6-----|-6---|
E|-----|-7----|---------|------|-7---|-------|-----|

Verse:

e|---|----|----|----|
B|7--|-4--|-6--|---6|
G|---|----|----|----|
D|---|----|----|----|
A|6--|-2--|-4--|---5|
E|---|----|----|----|

Build up of Verse:

e|---|----|----|----|
B|7--|-4--|-6--|---6|
G|6--|-4--|-6--|----|
D|---|----|----|----|
A|6--|-2--|-4--|---5|
E|---|----|----|----|

Chorus:

e|---|----|----|
B|4--|-6--|-4--|
G|4--|-6--|----|
D|---|----|----|
A|2--|-4--|-6--|
E|---|----|----|

Bridge:

e|---|----|----|---|
B|7--|-7--|-7--|-9-|
G|-6-|--6-|--6-|---|
D|---|----|----|---|
A|---|----|----|---|
E|7--|-6--|-7--|-9-|

It changes between those 4 "chords" the order and bars played changes sometimes.

Outro:

e|-9----|-9-----|-9-----|------|--|---|---|---|
B|--7h9-|---7h9-|---7h9-|-6----|--|-4-|-6-|-7-|
G|------|-------|-------|----8-|x2|---|---|---|
D|------|-------|-------|------|--|---|---|---|
A|-9----|-8-----|-7-----|-8----|--|-2-|-4-|-6-|
E|------|-------|-------|------|--|---|---|---|


That's basically it.

I do some variations in the chorus and the bridge. I didn't write it in because it 
changes every time and it's better for you to make your own variation.

HAVE FUN!!!

If you have any questions or have any suggestions or corrections just EMAIL ME!!!



************************************

| /   slide up
| \   slide down
| h   hammer-on
| p   pull-off
| ~   vibrato
| +   harmonic
| x   Mute note
| b   Bend
| pb  Pre-bend
| br  Bend release
| pbr Pre-bend release
| brb Bend release bend

************************************
Tap to rate this tab
# A B C D E F G H I J K L M N O P Q R S T U V W X Y Z