Song name
# A B C D E F G H I J K L M N O P Q R S T U V W X Y Z

Brian Cadd - Your Mama Dont Dance tab

The Bootleg Family - Your Mama Don't Dance
Main Riff (All except; chorus, solo)

e|---------------------------|----------------------------|----------------------|
B|---------------------------|----------------------------|----------------------|
G|---------------------------|----------------------------|----------------------|
D|--------5-7-5---------5-7-5|----------------------------|-------7-5-------5-7-5|
A|----5/7----------5/7-------|--------3-5-3----------3-5-3|----5/7-------5/7-----|
E|-8------------8------------|-1--3/5--------1--3/5-------|-8---------8----------|

|--------------------------|------------------------|
|--------------------------|------------------------|
|--------------------------|------------------------|
|--------------------------|--------7-5--------5-7-5|
|--------3-5-3--------5-7-5|----5/7--------5/7------|
|-1--3/5-------3--5/7------|-8----------8-----------|
Tap to rate this tab
# A B C D E F G H I J K L M N O P Q R S T U V W X Y Z