Song name
# A B C D E F G H I J K L M N O P Q R S T U V W X Y Z

Brian Doerksen - Faithful One tab

-----------------------------------------------------------------
FAITHFUL ONE  Brian Doerksen
-----------------------------------------------------------------
Tabbed by: Graham Choo
Email: da_tweens@yahoo.co.uk
submited: StratMK
Tuning: Standard
Instructional Vid: http://youtu.be/NYT87rEWKa0

Intro:
   D               D
e|---------2---------------2-----------------------------------------|
B|-----3-------3-------3-------3-------------------------------------|
G|---2---2---2---2---2---2---2---2-----------------------------------|
D|-0---------------0-------------------------------------------------|
A|-------------------------------------------------------------------|
E|-------------------------------------------------------------------| 

Verse:
   D               D              G/D             G/D
e|---------2---------------2---------------3---------------3---------|
B|-----3-------3-------3-------3-------5-------5-------5-------5-----|
G|---2---2---2---2---2---2---2---2---4---4---4---4---4---4---4---4---|
D|-0---------------0---------------0---------------0-----------------|
A|-------------------------------------------------------------------|
E|-------------------------------------------------------------------|
   A               A               G      Asus     D
e|---------0---------------0-------------------------------2---------|
B|-----2-------2-------2-------2-------3-------3-------3-------3-----|
G|---2---2---2---2---2---2---2---2---0---0---2---2---2---2---2---2---|
D|-------------------------------------------------0-----------------|
A|-0---------------0-----------------------0-------------------------|
E|---------------------------------3---------------------------------| 
   D               D              G/D             G/D
e|---------2---------------2---------------3---------------3---------|
B|-----3-------3-------3-------3-------5-------5-------5-------5-----|
G|---2---2---2---2---2---2---2---2---4---4---4---4---4---4---4---4---|
D|-0---------------0---------------0---------------0-----------------|
A|-------------------------------------------------------------------|
E|-------------------------------------------------------------------| 
  D/F#     G      Asus            D/F#     G      Asus
e|-------------------------0-------------------------------0---------|
B|-----3-------3-------3-------3-------3-------3-------3-------3-----|
G|---2---2---0---0---2---2---2---2---2---2---0---0---2---2---2---2---|
D|-------------------------------------------------------------------|
A|-----------------0-------------------------------0-----------------|
E|-2-------3-----------------------2-------3-------------------------| 
  D/F#     G      Asus             D               D7
e|-------------------------0---------------2---------------2---------|
B|-----3-------3-------3-------3-------3-------3-------1-------1-----|
G|---2---2---0---0---2---2---2---2---2---2---2---2---2---2---2---2---|
D|---------------------------------0---------------0-----------------|
A|-----------------0-------------------------------------------------|
E|-2-------3---------------------------------------------------------| 
 Chorus:
   A               G      Asus     D               D
e|---------0-------------------------------2---------------2---------|
B|-----2-------2-------3-------3-------3-------3-------3-------3-----|
G|---2---2---2---2---0---0---2---2---2---2---2---2---2---2---2---2---|
D|---------------------------------0---------------0-----------------|
A|-0-----------------------0-----------------------------------------|
E|-----------------3-------------------------------------------------| 
   A               G      Asus     D               D7
e|---------0-------------------------------2---------------2---------|
B|-----2-------2-------3-------3-------3-------3-------1-------1-----|
G|---2---2---2---2---0---0---2---2---2---2---2---2---2---2---2---2---|
D|---------------------------------0---------------0-----------------|
A|-0-----------------------0-----------------------------------------|
E|-----------------3-------------------------------------------------| 
   G              D/F#             G              D/F#
e|---------3---------------0---------------3---------------0---------|
B|-----3-------3-------3-------3-------3-------3-------3-------3-----|
G|---0---0---0---0---2---2---2---2---0---0---0---0---2---2---2---2---|
D|-------------------------------------------------------------------|
A|-------------------------------------------------------------------|
E|-3---------------2---------------3---------------2-----------------| 
   G              D/F#     G      Asus             D              
e|---------3-------------------------------0---------------2-------2-|
B|-----3-------3-------3-------3-------3-------3-------3-------3---3-|
G|---0---0---0---0---2---2---0---0---2---2---2---2---2---2---2---2-2-|
D|-------------------------------------------------0---------------0-|
A|---------------------------------0---------------------------------|
E|-3---------------2-------3-----------------------------------------| 
| /  slide up
| \  slide down
| h  hammer-on
| p  pull-off
| ~  vibrato
| +  harmonic
| x  Mute note
Tap to rate this tab
 
# A B C D E F G H I J K L M N O P Q R S T U V W X Y Z