Song name
# A B C D E F G H I J K L M N O P Q R S T U V W X Y Z

Brian Doerksen - Hallelujah Your Love Is Amazing tab

Help us improve GuitareTab! Take a short survey!
This is the solo part that plays over the first half of the chourus:

e-----------------------------------------------------|
b-----------------------------------------------------|
g-----------------------------------------------------|
d---4--5/7\5--4--5--4--5/7/9--4--5/7\5--4--5--4--5--5-|
a-----------------------------------------------------|
e-----------------------------------------------------|

This is the solo part that plays over the second half of the chourus:
e--------------------------------------------3b--2p---|
b---------------------------------------------------3-|
g-----------------------------------------------------|
d---4--5/7\5--4--5--4--5/7/9--4--5/7\5--4--5----------|
a-----------------------------------------------------|
e-----------------------------------------------------|

This is the solo part that repeats over the verses:

e---------------------------------0------------------|
b----------3--------3----------3--1--0h1p------------|
g-------0---------0---------0-----0-------2p---------|
d--2/4--------2/4------2/4--------2------------------|
a----------------------------------------------------|
e----------------------------------------------------|

Key: h=Hammer on
     p=Pull off
     b=Bend string up
Related for Hallelujah Your Love Is Amazing tab