Song name
# A B C D E F G H I J K L M N O P Q R S T U V W X Y Z

Brian Doerksen - You Shine tab

Help us improve GuitareTab! Take a short survey!
Intro:
  E2
e|------------------------|----------------------------------------|
b|------------------------|----------------------------------------|
g|------------------------|----------------------------------------|
D|---------9~---------9~--|-----9-----9-----9-----9----------------|
A|--7-7-7------7-7-7------|-7-7---7-7---7-7---7-7---7-7------------|
E|------------------------|----------------------------------------|


Verse:
   E                                   F#m
e|-------------------|---------------|-----------------|---------------|
b|-------------------|---------------|-----------------|---------------|
g|-------------------|---------------|-----------------|---------------|
D|--------6----4--6--|------6---4--6-|-------7----6--7-|------7---6--7-|
A|--7--7----7--------|-7--7---7------|--9--9---9-------|-9--9---9------|
E|-------------------|---------------|-----------------|---------------|


     A                                E               Bsus
e|-----------------|----------------|---------------|--------|
b|-----------------|----------------|---------------|--------|
g|-----------------|----------------|---------------|--------|Repeat verse 
D|--------7---6--7-|------7----6--7-|------6---6--7-|--2/4---|
A|--0--0----0------|-0--0---0-------|-7--7---7------|--------|
E|-----------------|----------------|---------------|--------|


Pre-chorus:

C#m      F#m
E/G#     A        Bsus     B


Chorus:

E        Bsus/D#  A2       Bsus
E        Bsus/D#  A2       Bsus
A        E/G#     A        E/G#     Bsus     E2       E


   Repeat Verse
   Repeat Chorus

2nd Pre-chorus:

C#m      F#m
E/G#     A        Bsus     B
E/G#     A        Bsus     B


2nd Chorus:

F#       C#sus/E#   B        C#sus
F#       C#sus/E#   B        C#sus
B        F#/A#      B        F#/A#    C#sus    F#


**Repeat 2nd Chorus**

F#       C#       B
C#sus    F#       C#       B
C#sus    F#


1st chorus guitar solo:

e|-------------------------------|
b|-10--9---------10--9-------12--|
g|-------11-9----------11-9------|
D|-------------------------------|
A|-------------------------------|
E|-------------------------------|


2nd chorus guitar solo:

e|-------------------------------|
b|-12--11--------12--11-------14-|
g|-------13-11---------13-11-----|
D|-------------------------------|
A|-------------------------------|
E|-------------------------------|
Related for You Shine tab