Song name
# A B C D E F G H I J K L M N O P Q R S T U V W X Y Z

Brian Eno - The Fat Lady Of Limbourg chords

Highlighted       Show chord diagrams
Brian Eno- Taking Tiger Mountain (By Strategy)-
The Fat Lady Of Limbourg


Am
Well, I rang up Pantucci,
Am
Spoke to Lu-chi,
            G
I gave them all
               Am
They needed to know.
Am
If affairs are proceeding
Am
As we're expecting,
     G                          Am
Soon enough the weak spots will show.
Am                                                   
I assume you understand that we have options on your time,
         G                              Am
And will ditch you in the harbour if we must:
Am
But if it all works out nicely,
Am
You'll get the bonus you deserve
     G          Am
From doctors we trust.

The Fat Lady of Limbourg
Looked at the samples that we sent
And furrowed her brow.
You would never believe that
She'd tasted royalty and fame
If you saw her now.
But her sense of taste is such that she'll distinguish with her tongue
The subtleties a spectrograph would miss,
And announce her decision,
While demanding her reward:
The jellyfish kiss.

Now we checked out this duck quack
Who laid a big egg, oh so black
It shone just like gold.
And the kids from the city,
Finding it pretty, took it home,
And there it was sold.
It was changing hands for weeks till someone left it by their fire
And it melted to a puddle on the floor:
For it was only a candle, a Roman scandal oh oh oh,
Now it's a pool.
That's what we're paid for
That's what we're paid for
That's what we're paid for here.


Horn Part:

E|---------------------------------------------------------------------------|
B|---------------------------------------------------------------------------|
G|-------------9----7-9-----5-------------------9----7-9-----5---------------|
D|------7-7--------------------7---------7-7--------------------7------------|
A|---------------------------------------------------------------------------|
E|---------------------------------------------------------------------------|

E|---------------------------------------------------------------------------|
B|---------------------------------------------------------------------------|
G|------------7----5-7---4---------------------------------------------------|
D|-----5-5------------------5----7-------------------------------------------|
A|---------------------------------------------------------------------------|
E|---------------------------------------------------------------------------|
Tap to rate this tab
# A B C D E F G H I J K L M N O P Q R S T U V W X Y Z