Song name
# A B C D E F G H I J K L M N O P Q R S T U V W X Y Z

Brian Eno - An Ending Ascent tab

Hey, I know there's already loads of tabs for this song but I didn't see one that was 
tabbed for just one guitar so here it goes.

Obviously, let every chord ring:

e-12------10---- -8------------- -12------10----14- -14--15--14-12-------|
B-----12-------- -----12--10---- -----12----------- ---------------15----|
G--------------- ---------7----- ------------------ ------------------12-|
D-10------12---- -10------------ -10------12------- -10------12----------|
A-----10-------- -----10-------- -----10----------- -----10--------------|
E--------------- --------------- ------------------ ---------------------|

e----------------------- --------------------|
B--------12-12---------- --------12-12-10----|
G-12--12-------14-12-14- -12--12-------------|
D-10--------12---------- -10--------12-------|
A-----10---------------- -----10-------------|
E----------------------- --------------------| and repeat.
Tap to rate this tab
# A B C D E F G H I J K L M N O P Q R S T U V W X Y Z