Song name
# A B C D E F G H I J K L M N O P Q R S T U V W X Y Z

Brian Haner - Saturday tab

-------------------------------------------------------------------------------
                             Saturday - Brian Haner
-------------------------------------------------------------------------------
Tabbed by: GuitarGuyFTW
Email: SynGates6661@hotmail.co.uk

The first song that I've ever figured out by ear, so it's not perfect but it's the 
way I play it and it sounds decent.
Email me with any corrections you have.
Enjoy.


Tuning: Standard.

(1:57)
All of the seventeens are tapped with your picking hand. 
e|---------------------------------------------------------------------------|
B|-17-12-10-17-1-9-17-9-7-17-7-5-17-5-3-17-2-17-3-17-5-17-7-17-9-17-10-17-12-|
G|---------------------------------------------------------------------------|
D|---------------------------------------------------------------------------|
A|---------------------------------------------------------------------------|
E|---------------------------------------------------------------------------|

e|---------------------------------------------------------------------------|
B|-14-15-14-15b17rbrbrbr-----------------------------------------------------|
G|---------------------------------------------------------------------------|
D|---------------------------------------------------------------------------|
A|---------------------------------------------------------------------------|
E|---------------------------------------------------------------------------|

(2:07)
e|-/17-16-17-----------------------------------------------------------------|
B|-----------17-14-17b19r17-15-14-15-----------------------------------------|
G|-----------------------------------14--------------------------------------|
D|---------------------------------------------------------------------------|
A|---------------------------------------------------------------------------|
E|---------------------------------------------------------------------------|

e|---------------------------------------------------------------------------|
B|-5b7r5p3-t10p3\2-/12b14~---------------------------------------------------|
G|---------------------------------------------------------------------------|
D|---------------------------------------------------------------------------|
A|---------------------------------------------------------------------------|
E|---------------------------------------------------------------------------|



************************************

| /   slide up
| \   slide down
| h   hammer-on
| p   pull-off
| ~   vibrato
| +   harmonic
| x   Mute note
| t   Tap
| b   Bend
| pb  Pre-bend
| br  Bend release
| pbr Pre-bend release
| brb Bend release bend

************************************
Tap to rate this tab
# A B C D E F G H I J K L M N O P Q R S T U V W X Y Z