Song name
# A B C D E F G H I J K L M N O P Q R S T U V W X Y Z

Brian Haner - Zombie Girls tab

-------------------------------------------------------------------------------
                             Zombie Girls - Brian Haner
-------------------------------------------------------------------------------
Tabbed by: GuitarGuyFTW
Email: SynGates6661@hotmail.co.uk

Tuning: Standard.

Epic solo by Brian Haner (Aka Guitar Guy).
You'll need to listen to the song for the timings as it's to hard to tab it perfectly.
If you can find anything wrong with it E-Mail me your corrections and I'll fix it.
Enjoy.

e|-------------------------5---7---7b8r7-------------------------------------|
B|-------------------5-------5---7-------4-13b15r\5--------------------------|
G|-------------5-------4-5---------------------------------------------------|
D|-------5-------7-7---------------------------------------------------------|
A|---------6-7---------------------------------------------------------------|
E|-5-7-8---------------------------------------------------------------------|

e|------------12-15b17r15b17r15~-14~14b15------------------------------------|
B|----------13---------------------------------------------------------------|
G|--------14-----------------------------------------------------------------|
D|------14-------------------------------------------------------------------|
A|-12-15---------------------------------------------------------------------|
E|---------------------------------------------------------------------------|

e|-17-12-17-12-8-12-8-5-8-5---5-8-/12-11-14-11-------------------------------|
B|-------------------------5-5-----------------------------------------------|
G|--------------------------5------------------------------------------------|
D|---------------------------------------------------------------------------|
A|---------------------------------------------------------------------------|
E|---------------------------------------------------------------------------|

e|-7-11-7----------13-12-10--------------------------------------------------|
B|-------7-------12---------13-12--------------------------------------------|
G|--------8----13------------------------------------------------------------|
D|---------8/14--------------------------------------------------------------|
A|---------------------------------------------------------------------------|
E|---------------------------------------------------------------------------|

(This is the fast alternate picking part. Good luck.)
e|-------12---------------------12--------------------12-15/17\15-12---------|
B|-14-15---15-14-13-12-13-14-15---15-14-13-12-13-14-15-----------------------|
G|---------------------------------------------------------------------------|
D|---------------------------------------------------------------------------|
A|---------------------------------------------------------------------------|
E|---------------------------------------------------------------------------|

e|---------------------------------------------------------------------------|
B|-15-14-13-12-13-14-15-15-14-13-12-14-12------------------------------------|
G|----------------------------------------15-14-13-12-13-14-15-14-13-12-13-12|
D|---------------------------------------------------------------------------|
A|---------------------------------------------------------------------------|
E|---------------------------------------------------------------------------|

e|---------------------------------------------------------------------------|
B|---------------------------------------------------------------------------|
G|---------------------------------------------------------------------------|
D|-15-14-13-12---------------------------------------------------------------|
A|------------15-14-13-12----------------------------------------------------|
E|---------------------------------------------------------------------------|

e|---------------------------------------------------------------------------|
B|---------------------------------------------------------------------------|
G|---------------------------------------------------------------------------|
D|---------------------------------------------------------------------------|
A|---------------------------------------------------------------------------|
E|---------------------------------------------------------------------------|


************************************

| /   slide up
| \   slide down
| h   hammer-on
| p   pull-off
| ~   vibrato
| +   harmonic
| x   Mute note
| b   Bend
| pb  Pre-bend
| br  Bend release
| pbr Pre-bend release
| brb Bend release bend

************************************


Tap to rate this tab
# A B C D E F G H I J K L M N O P Q R S T U V W X Y Z