Song name
# A B C D E F G H I J K L M N O P Q R S T U V W X Y Z

Brian Head Welch - Loyalty tab


Brian Head Welch
Loyalty
Tabbed by U B the band
Tuning A E A D F# B

Legend
b-bend                           r-return bend                   pm-palm mute

Intro: Guitar 1 (Distorted)
 B|---------------------------------------------------------------------------|
F#|---------------------------------------------------------------------------|
 D|--2----------------2----------------2-------------------------5------------|
 A|--2----------------2----------------2----------------3--------5------------|
 E|--0----------------0----------------0----------------3--------3------------|
 A|-----------------------------------------------------3---------------------|

Intro: Guitar 1 (Distorted)
 B|---------------------------------------------------------------------------|
F#|---------------------------------------------------------------------------|
 D|--2----------------2----------------2-------------------------5------------|
 A|--2----------------2----------------2----------------3--------5------------|
 E|--0----------------0----------------0----------------3--------3------------|
 A|-----------------------------------------------------3---------------------|
                                                                              |
Intro: Guitar 2 (Distorted)                                                   |
 B|----------5-b-(6)----------5-b-(6)----------5-b(6)------------------r(6)-5-|
F#|---------------------------------------------------------------------------|
 D|---------------------------------------------------------------------------|
 A|---------------------------------------------------------------------------|
 E|---------------------------------------------------------------------------|
 A|---------------------------------------------------------------------------|

Verse 1: Guitar 1 (Distorted) PLAY 2 TIMES
 B|---------------------------------------------------------------------------|
F#|---------------------------------------------------------------------------|
 D|--2----------------2----------------2-------------------------5------------|
 A|--2----------------2----------------2----------------3--------5------------|
 E|--0----------------0----------------0----------------3--------3------------|
 A|-----------------------------------------------------3---------------------|

Verse 1: Guitar 1 (Distorted) PLAY 2 TIMES
 B|---------------------------------------------------------------------------|
F#|---------------------------------------------------------------------------|
 D|--2----------------2----------------2-------------------------5------------|
 A|--2----------------2----------------2----------------3--------5------------|
 E|--0----------------0----------------0----------------3--------3------------|
 A|-----------------------------------------------------3---------------------|
                                                                              |
Verse 1: Guitar 2 (Distorted) PLAY 2 TIMES                                    |
 B|----------5-b-(6)----------5-b-(6)----------5-b(6)------------------r(6)-5-|
F#|---------------------------------------------------------------------------|
 D|---------------------------------------------------------------------------|
 A|---------------------------------------------------------------------------|
 E|---------------------------------------------------------------------------|
 A|---------------------------------------------------------------------------|

Chorus: Guitar 1 (Distorted)
 B|---------------------------------------------------------------------------|
F#|---------------------------------------------------------------------------|
 D|--5--------------------------------------------------2----------4----------|
 A|--5----------------5----------------3----------------2----------4----------|
 E|--3----------------5----------------3----------------0----------2----------|
 A|-------------------5----------------3--------------------------------------|

Chorus: Guitar 1 (Distorted)
 B|---------------------------------------------------------------------------|
F#|---------------------------------------------------------------------------|
 D|--5------------------------------------------------------------------------|
 A|--5----------------5----------2----------3----------------3----------------|
 E|--3----------------5----------0----------3----------------3----------------|
 A|-------------------5---------------------3----------------3----------------|

Verse 2: Guitar 1 (Distorted) PLAY 3 TIMES
 B|---------------------------------------------------------------------------|
F#|---------------------------------------------------------------------------|
 D|--2----------------2----------------2-------------------------5------------|
 A|--2----------------2----------------2----------------3--------5------------|
 E|--0----------------0----------------0----------------3--------3------------|
 A|-----------------------------------------------------3---------------------|

Verse 2: Guitar 1 (Distorted) PLAY 2 TIMES
 B|---------------------------------------------------------------------------|
F#|---------------------------------------------------------------------------|
 D|--2----------------2----------------2-------------------------5------------|
 A|--2----------------2----------------2----------------3--------5------------|
 E|--0----------------0----------------0----------------3--------3------------|
 A|-----------------------------------------------------3---------------------|
                                                                              |
Verse 2: Guitar 2 (Distorted) PLAY 2 TIMES                                    |
 B|----------5-b-(6)----------5-b-(6)----------5-b(6)------------------r(6)-5-|
F#|---------------------------------------------------------------------------|
 D|---------------------------------------------------------------------------|
 A|---------------------------------------------------------------------------|
 E|---------------------------------------------------------------------------|
 A|---------------------------------------------------------------------------|

Chorus: Guitar 1 (Distorted)
 B|---------------------------------------------------------------------------|
F#|---------------------------------------------------------------------------|
 D|--5--------------------------------------------------2----------4----------|
 A|--5----------------5----------------3----------------2----------4----------|
 E|--3----------------5----------------3----------------0----------2----------|
 A|-------------------5----------------3--------------------------------------|

Chorus: Guitar 1 (Distorted)
 B|---------------------------------------------------------------------------|
F#|---------------------------------------------------------------------------|
 D|--5------------------------------------------------------------------------|
 A|--5----------------5----------2----------3----------------3----------------|
 E|--3----------------5----------0----------3----------------3----------------|
 A|-------------------5---------------------3----------------3----------------|

Bridge: Guitar 1 (Distorted) PLAY 6 TIMES
 B|---------------------------------------------------------------------------|
F#|---------------------------------------------------------------------------|
 D|-----------2----------------2-------------------2-------------------5------|
 A|--2--2--2--2----------2--2--2----------2--2--2--2----------3--------5------|
 E|--0--0--0--0----------0--0--0----------0--0--0--0----------3--------3------|
 A|-----------------------------------------------------------3---------------|
     pmpmpmpm            pmpm             pmpmpmpm    

Chorus: Guitar 1 (Distorted) PLAY 3 TIMES (FADE OUT ON 3RD TIMES)
 B|---------------------------------------------------------------------------|
F#|---------------------------------------------------------------------------|
 D|--5--------------------------------------------------2----------4----------|
 A|--5----------------5----------------3----------------2----------4----------|
 E|--3----------------5----------------3----------------0----------2----------|
 A|-------------------5----------------3--------------------------------------|

Chorus: Guitar 1 (Distorted)
 B|---------------------------------------------------------------------------|
F#|---------------------------------------------------------------------------|
 D|--5------------------------------------------------------------------------|
 A|--5----------------5----------2----------3----------------3----------------|
 E|--3----------------5----------0----------3----------------3----------------|
 A|-------------------5---------------------3----------------3----------------|

Finished!
Tap to rate this tab
 
# A B C D E F G H I J K L M N O P Q R S T U V W X Y Z