Brian Head Welch - Letter To Dimebag tab

0.01 – 0.09

e|---------------------------------------|
B|---------------------------------------|
G|-13/15---15/13-------------------------|
D|---------------------------------------|
A|---------------------------------------|
E|---------------------------------------|


0.10 – 0.13

e|---------------------------------------|
B|---------------------------------------|
G|-15-14-13-11--15-11--------------------|
D|---------------------------------------|
A|---------------------------------------|
E|---------------------------------------|


0.14 - 0.18

e|---------------------------------------|
B|---------------------------------------|
G|-15-14-13-11-14-11-18-15-11------------|
D|---------------------------------------|
A|---------------------------------------|
E|---------------------------------------|


0.21 – 0.24

e|---------------------------------------|
B|----15-13--11-14-11-11/9---------------|
G|-12------------------------------------|
D|---------------------------------------|
A|---------------------------------------|
E|---------------------------------------|


0.24 – 0.28

e|---------------------------------------|
B|---------------------------------------|
G|-12-14/15--7-7-9-6---------------------|
D|---------------------------------------|
A|---------------------------------------|
E|---------------------------------------|


0.29  – 0.30

e|---------------------------------------|
B|---------------------------------------|
G|-13/15---------------------------------|
D|---------------------------------------|
A|---------------------------------------|
E|---------------------------------------|


0.30 – 0.33

e|---------------------------------------|
B|---------------------------------------|
G|-16-14-11-10/7-7-----------------------|
D|---------------------------------------|
A|---------------------------------------|
E|---------------------------------------|



That’s as far as i could get, im tired and want to go to bed xD
I think it’s reasonably correct.
It's my first tab, so sorry if it's bad.. 
Facebook me if you have any questions.
Fraya Lancaster 
Tap to rate this tab
 
# A B C D E F G H I J K L M N O P Q R S T U V W X Y Z