Song name
# A B C D E F G H I J K L M N O P Q R S T U V W X Y Z

Brian Jonestown Massacre - Open Heart Surgary tab

   A      C      G      C       /=slide

Guitar one
e--------------------------------|
B--2-2-2-------------------------|
G--2-2-2-------------------------|
D--2-2-2--2-2-2---------2-2-2----|Repeat
A---------3-3-3--2-2-2--3-3-3----|
E----------------3-3-3-----------|

Figure Out the Strum pattern!


Guitar two
D----------------------------|
A-----7--5--3-----3----------| Repeat
E--5-----------5-----3--3/5--|


Another Way!

e-------------------------------------------|
B-------------------------------------------|
G----------5-5-5-----------5-5-5------------|
D--7-7-7---5-5-5---5-5-5---5-5-5------------|Repeat
A--7-7-7---3-3-3---5-5-5---3-3-3------------|
E--5-5-5-----------3-3-3--------------------|
Tap to rate this tab
 
# A B C D E F G H I J K L M N O P Q R S T U V W X Y Z