Song name
# A B C D E F G H I J K L M N O P Q R S T U V W X Y Z

Brian Jonestown Massacre - Wisdom tab

WISDOM

chords used (E-A-D-G-B-E)
F# (2-4-4-3-2-2)-|
C# (4-4-6-6-6-4)-|
E (0-2-2-1-0-0)--|
B (7-9-9-8-7-7)--|
A (5-7-7-6-5-5)--|

E---------------------------------------------------------|
B---------------------------------------------------------|
G-11--11--11--11--11--11--11--11---------------------11---|
D---11--11--11--11--11--11--11--11-----------------11-----|
A---------------------------------9-9-9-9-9-9-9-9-9----9--|
E---------------------------------------------------------|


E--------------------------------------------------------|
B--------------------------------------------------------|
G-11-11-9-11-9-11-9--------9----9------------------------|
D------------------11-9-11---11---11-9-9-11-9------------|
A--------------------------------------------9---9-12-12-|
E----------------------------------------------12--------|

E---------------------------------------------------------|
B----------9--------------------------9-------------------|
G-9-11-9-11--11-9-9---------9-11-11-11--11...--ETC--------|
D-------------------11-9-11-------------------------------|
A---------------------------------------------------------|
E---------------------------------------------------------|

F#                       C#
If i thought i knew the reason
         E                  B        A
why ive gone and fallen in love with you
F#                       C#
your the one thing i believe in
         E                     B     A
and i know quite well what ive got to do
Tap to rate this tab
# A B C D E F G H I J K L M N O P Q R S T U V W X Y Z