Song name
# A B C D E F G H I J K L M N O P Q R S T U V W X Y Z

Brian Jonestown Massacre - Jennifer tab

Highlighted       Show chord diagrams
JENNIFER

CHORDS USED (E-A-D-G-B-e)
A (0-0-2-2-2-0)-----|
Asus? (0-0-2-2-0-0)-|
D(x-x-0-3-2-3)------|
Dsus? (x-x-0-3-2-0)-|
E (0-2-2-1-0-0)-----|


Intro: A Asus?   x4

e--------------------------------------------------|
B----2--2--0------0------0-------------------------|
G---2---2--2--2---2--2---2--2----------------------|    x4
D--2----2--2----2-2---2--2---2---------------------|
A-0-----0--0------0------0-------------------------|
E--------------------------------------------------|

A       Asus?
jennifer i
     A         Asus?
was talking to you
     A             Asus?
you said you could fly
   A          Asus?
i believed in you
       D        Dsus?
right over our heads while i was sleeping
      D           Dsus?             Dsus? Dsus?
you said that the clouds were always weeping      rain

A Asus? x2

A         Asus?
Jennifer jen
      A           Asus?
lets make it come true
  A          Asus?
i dont wanna lie
    A          Asus?
ill be cruel to you
       D        Dsus?
right over my head while i was sleeping
      D          Dsus?              Dsus? Dsus?
you said that the clouds were always weeping    rain

A Asus? x2

E                           D        Dsus?      Dsus? Dsus?
 I'd like to show you but i dont know what to do

A Asus?
Tap to rate this tab
# A B C D E F G H I J K L M N O P Q R S T U V W X Y Z