Song name
# A B C D E F G H I J K L M N O P Q R S T U V W X Y Z

Brian Jonestown Massacre - Maybe Tomorrow tab

Highlighted       Show chord diagrams
MAYBE TOMORROW

Chords used (E-A-D-G-B-E)
G (3-2-0-0-0-3)---------|
D (x-x-0-2-3-2)---------|
Am (0-0-2-2-1-0)--------|
C (0-3-2-0-1-0)---------|
F (1-3-3-2-1-1) or (x-0-3-2-1-1)-|


Intro: G D Am C x2

G         D               Am
Hey, Im sorry I wasnt there
    C                     G
but i never lied, it's a shame
      D                    Am
that you don't believe i came
      C
and neither do i

Am                      D
baby you can take your time
             G                         D
and maybe tomorrow you can change your mind
           Am                        D
i got my friends i got a bottle of wine
                G
and im feeling fine i dont miss you
F                      C        D
no i dont miss you at all

Solo:
                               x3    Then:
e-----------------------------------|--------------|
B-----------------------------------|--------------|
G-----------------------------------|--------7-----|
D-7-7/9\7------------------9\7------|-10-----------|
A---------10-7------7-10-7-----10-7-|--------------|
E----------------10-----------------|--------------|

-thanks dand
Tap to rate this tab
 
# A B C D E F G H I J K L M N O P Q R S T U V W X Y Z