Guitaretab - guitar tabs
Song name
# A B C D E F G H I J K L M N O P Q R S T U V W X Y Z

Brian Jonestown Massacre - Golden-frost tab

Artist: The Brian Jonestown Massacre
Song: Golden-Frost


Hi everyone,

This is my first tab. Itís quite basic but I really wanted to post this tab, so others 
change it or make a complete tab.

I used this source: http://www.youtube.com/watch?v=_vuKbTFajoc

I found two ways to play it.


The first one is played in standard tuning. Itís not the most accurate way but it just 
where you donít need to set up the string tuning in an other way.

e|--------------------------------------------------------------------| X1
B|--------------------------------------------------------------------|
G|--------------------------------------------------------------------|
D|--------------------------------------------------------------------|
A|--------------------------------------------------------------------|
E|---5-5-5-5---15-15-15-15-15---10-10-10-10-10--8-8-8-8------1010-----|

e|--------------------------------------------------------------------| X5
B|--------------------------------------------------------------------|
G|--------------------------------------------------------------------|
D|--------------------------------------------------------------------|
A|--------------------------------------------------------------------|
E|---5-5-5-5---15-15-15-15-15---10-10-10-10-10--8-8-8-8-8-------------|
[ Tab from: http://www.guitaretab.com/b/brian-jonestown-massacre/180987.html ]
e|--------------------------------------------------------------------|X1
B|--------------------------------------------------------------------|
G|--------------------------------------------------------------------|
D|--------------------------------------------------------------------|
A|--------------------------------------------------------------------|
E|---8-8-8-8-888888--10-10-10-10-10-101010101010----------------------|

Then start all over again.

The second way is played in Dropped D. This one is used by Anton Newcombe in the video. 
is the easiest and best way. (I think)

e|-------------------------------------------------------------| X1
B|-------------------------------------------------------------|
G|-------------------------------------------------------------|
D|-------------------------------------------------------------|
A|-------------------------------------------------------------|
D|---0-0-0-0---10-10-10-10-10---5-5-5-5-5--3-3-3-3---55--------|

e|-------------------------------------------------------------| X5
B|-------------------------------------------------------------|
G|-------------------------------------------------------------|
D|-------------------------------------------------------------|
A|-------------------------------------------------------------|
D|---0-0-0-0---10-10-10-10-10---5-5-5-5-5--3-3-3-3-3-----------|

e|-------------------------------------------------------------| X1
B|-------------------------------------------------------------|
G|-------------------------------------------------------------|
D|-------------------------------------------------------------|
A|-------------------------------------------------------------|
D|----3-3-3-3-3-333333----5-5-5-5-5-555555---------------------|

then start all over again.


So here you have it. Hopefully we can make a complete tab.
Please post some remarks. This is my first tab, so don't take it too seriously ;-)

J.B.
Related for Golden-frost tab