Song name
# A B C D E F G H I J K L M N O P Q R S T U V W X Y Z

Brian Jonestown Massacre - She Made Me tab

She Made Me by The Brian Jonestown Massacre

Standard Tuning

|-0-0-0-0-0-0-0-2-2-2-2-2-2-2-2-2-2-2-2-0-0-0-0-0-0-0-0-0-0-0-|
|-5-5-5-5-5-5-5-0-0-0-0-0-0-0-0-0-0-0-0-5-5-5-0-0-0-0-0-0-0-0-|
|-4-4-4-4-4-4-4-4-4-4-4-4-4-4-4---------4-4-4-4-4-4-4-4-4-4-4-|
|-------------------------------------------------------------| 
|-------------------------------------------------------------|
|-------------------------------------------------------------|

|-0-0-0-0-0-0-0-0-0-0-0-0-0-0-0-2-2-2-2-0-0-0-0-0-0-0-0-0-0-0-|
|-5-5-5-5-5-5-5-4-4-4-4-4-4-4-4-0-0-0-0-5-5-5-0-0-0-0-0-0-0-0-|
|-4-4-4-4-4-4-4-4-4-4-4-4-4-4-4-4-4-4-4-4-4-4-4-4-4-4-4-4-4-4-|
|-------------------------------------------------------------|
|-------------------------------------------------------------|
|-------------------------------------------------------------|

|-0-0-0-0-0-0-0-2-2-2-2-2-2-2-2-2-2-2-2-0-0-0-0-0-0-0-0-0-0-0-|
|-5-5-5-5-5-5-5-0-0-0-0-0-0-0-0-0-0-0-0-5-5-5-0-0-0-0-0-0-0-0-|
|-4-4-4-4-4-4-4-4-4-4-4-4-4-4-4---------4-4-4-4-4-4-4-4-4-4-4-|
|-------------------------------------------------------------| 
|-------------------------------------------------------------|
|-------------------------------------------------------------|

|-0-0-0-0-0-0-0-0-0-0-0-0-0-0-0-2-2-2-2-0-0-0-0-0-0-0-0-0-0-0-|
|-5-5-5-5-5-5-5-4-4-4-4-4-4-4-4-0-0-0-0-5-5-5-0-0-0-0-0-0-0-0-|
|-4-4-4-4-4-4-4-4-4-4-4-4-4-4-4-4-4-4-4-4-4-4-4-4-4-4-4-4-4-4-|
|-------------------------------------------------------------|
|-------------------------------------------------------------|
|-------------------------------------------------------------|

Singing starts here

|-0-0-0-0-0-0-0-0-0-0-0-0-0-0-0-0-2-2-2-2-2-2-2-2-2-2-2-2-0-0-0-0-|
|-5-5-5-5-5-5-5-5-5-5-5-5-5-5-5-5-0-0-0-0-3-3-3-3-3-3-3-3-3-3-3-3-|
|-4-4-4-4-4-4-4-4-4-4-4-4-4-4-4-4-4-4-4-4-4-4-4-4-4-4-4-4-4-4-4-4-|
|-----------------------------------------------------------------|
|-----------------------------------------------------------------|
|-----------------------------------------------------------------|

|-0-0-0-0-0-0-0-0-0-0-0-0-0-0-0-0-0-0-0-0-0-0-0-0-0-0-0-0-0-0-0-|
|-0-0-0-0-0-0-0-0-0-0-0-0-0-0-0-0-5-5-5-5-3-3-3-0-0-0-0-0-0-0-0-|
|-4-4-4-4-4-4-4-4-4-4-4-4-4-4-4-4-4-4-4-4-4-4-4-4-4-4-4-4-4-4-4-|
|---------------------------------------------------------------|
|---------------------------------------------------------------|
|---------------------------------------------------------------|

|-0-0-0-0-0-0-0-0-0-0-0-0-0-0-0-0-2-2-2-2-2-2-2-2-2-2-2-2-0-0-0-0-|
|-5-5-5-5-5-5-5-5-5-5-5-5-5-5-5-5-0-0-0-0-3-3-3-3-3-3-3-3-3-3-3-3-|
|-4-4-4-4-4-4-4-4-4-4-4-4-4-4-4-4-4-4-4-4-4-4-4-4-4-4-4-4-4-4-4-4-|
|-----------------------------------------------------------------|
|-----------------------------------------------------------------|
|-----------------------------------------------------------------|

|-0-0-0-0-0-0-0-0-0-0-0-0-0-0-0-0-0-0-0-0-0-0-0-0-0-0-0-0-0-0-0-|
|-0-0-0-0-0-0-0-0-0-0-0-0-0-0-0-0-5-5-5-5-3-3-3-0-0-0-0-0-0-0-0-|
|-4-4-4-4-4-4-4-4-4-4-4-4-4-4-4-4-4-4-4-4-4-4-4-4-4-4-4-4-4-4-4-|
|---------------------------------------------------------------|
|---------------------------------------------------------------|
|---------------------------------------------------------------|

The whole thing repeats until end, playing each set of 2 measures once instead of twice.
Tap to rate this tab
 
# A B C D E F G H I J K L M N O P Q R S T U V W X Y Z