Song name
# A B C D E F G H I J K L M N O P Q R S T U V W X Y Z

Brian Jonestown Massacre - When I Was Yesterday tab

The main tab:

e-----------------------------------------------------|
B-----------------------------------------------------|
G---------------2-2-----2-0---------------------------|
D-------0-2-0---------------2-0-----------------------|
A-0-0-3-------3-----0-0---------0---------------------|
E-----------------------------------------------------|

The bass on the breakdown part:
(you can play it all on one string, like this:
E-5-5-5-5-5-3-3-8-8-8-8-8-7-7-7-10-10-10-8-8-12-3-X2--|

or if you prefer, like this (obviously, but I'll tab it anyway):

e-----------------------------------------------------|
B-----------------------------------------------------|
G-----------------------------------------------------|
D-------------------------------0-0-0-----2-2-2-2-2---|
A-0-0-0-0-0-----3-3-3-3-3-2-2-2-------3-3-------------|
E-----------3-3-------------------------------------3-|x2

This song appears on spacegirl & other favourites and the diane perry tape if you 
want to play along or something.
Enjoy!
Tap to rate this tab
 
# A B C D E F G H I J K L M N O P Q R S T U V W X Y Z