Song name
# A B C D E F G H I J K L M N O P Q R S T U V W X Y Z

Brian Jonestown Massacre - Rotary 8 tab

Brian Jonestown Massacre - Rotary 8 / E to G  (First Half)

Play with lots of reverb just to make it sound that little bit better.

Chords Used :

   F      A#        G#
E|-1--------------------|
B|-1------6-------4-----|
G|-2------7-------5-----|
D|-3------8-------6-----|
A|-3------8-------6-----|
E|-1------6-------4-----|

Of course with the title being E to G the chords should be E A G but any recording ive 
listened to has been out of tune making these chords the only option if you're playing 
along with the song. If you do choose to play it with E A G Move each note of the 
solo back a fret.

Solo

E|-13-12-----------------------------------13-12---12-13/15-15-15-13---|
B|-------13--13-13-11-13----------10-11-13~------13-----------------13-|
G|-----------------------10-----10-------------------------------------|
D|---------------------------------------------------------------------|
A|---------------------------------------------------------------------|
E|---------------------------------------------------------------------|

E|-12-13-12-----------13-12-----------------------|
B|----------13-10-13--------13--11-13-11-13-------|
G|------------------------------------------10~---|
D|------------------------------------------------|
A|------------------------------------------------|
E|------------------------------------------------|

And.... 5th BJM tab of today complete. 7 in total now.. Boom!
More on more than likely on the way.

Message me if you have any requests.
Tap to rate this tab
# A B C D E F G H I J K L M N O P Q R S T U V W X Y Z