Song name
# A B C D E F G H I J K L M N O P Q R S T U V W X Y Z

Brian Jonestown Massacre - Not If You Were The Last Dandy On Earth tab

Brian Jonestown Massacre - Not If You Were The Last Dandy On Earth

AMAZINGLY FUN SONG!

Guitar 1

E|-3-0-x-0--0-0-0-0-0-0-0-0-0-0-0|
B|-3-2-x-0--0-0-0-0-0-0-0-0-0-0-0|
G|-0-2-x-1--1-1-1-1-1-1-1-1-1-1-1|
D|-0-2-x-2--2-2-2-2-2-2-2-2-2-2-2|  x14
A|-2-0-x-2--2-2-2-2-2-2-2-2-2-2-2|
E|-3---x-0--0-0-0-0-0-0-0-0-0-0-0|

Guitar 2

E|--------------------------------------------------------------------------------------------|
B|--------------------------------------------------------------------------------------------|
G|-14b-14b-14b-14b-14b-14b-14b-12-------------12-14b-14b-14b-14b-14b-14b-14b-14b-14b-14-14-14b|
D|--------------------------------14-12-14--14------------------------------------------------|
A|--------------------------------------------------------------------------------------------|
E|--------------------------------------------------------------------------------------------|

E|---------------------------------------------------|
B|---------------------------------------------------|
G|14b-14b-14b14-12--------------12----12-------------|
D|-----------------14-12-14--14----14----14--14b-14~~|
A|---------------------------------------------------|
E|---------------------------------------------------|

Let last note above ring^  Then play:

E|---------------------------------------------------------------------------|
B|---------------------------------------------------------------------------|
G-12-14-14-14b-14b-14b-14b-14b-14b-14b-14b-14b-14--12--12--12---12-14-14b-12-|
D|---------------------------------------------------------------------------|
A|---------------------------------------------------------------------------|
E|---------------------------------------------------------------------------|

E|-----------------------------------------------------------------------|
B|-----------------------------------------------------------------------|
G|-14b-14b-14b-14b-14b-14b-14b-12-------------12--12----12--12--12--12---|
D|--------------------------------14-12-14-14---14--14----14--14--14--14-|
A|-----------------------------------------------------------------------|
E|-----------------------------------------------------------------------|


Chorus

E|------------------------------------------|          |--------------------|
B|---------5-5-----0--0-0-0--0-0-0-0--0-0-0-|          |-7-7-7-7-7-7-7-7-7--|
G|-7-7-x-x-6-6-x-x-1--1-1-1--1-1-1-1--1-1-1-|          |-8-8-8-8-8-8-8-8-8--|
D|-7-7-x-x-7-7-x-x-2--2-2-2--2-2-2-2--2-2-2-| x3 Then  |-9-9-9-9-9-9-9-9-9--|
A|-5-5-x-x-7-7-x-x-2--2-2-2--2-2-2-2--2-2-2-|          |-9-9-9-9-9-9-9-9-9--|
E|---------5-5-x-x-0--0-0-0--0-0-0-0--0-0-0-|          |-7-7-7-7-7-7-7-7-7--|


Guitar 1

E|-3-0-x-0--0-0-0-0-0-0-0-0-0-0-0|
B|-3-2-x-0--0-0-0-0-0-0-0-0-0-0-0|
G|-0-2-x-1--1-1-1-1-1-1-1-1-1-1-1|
D|-0-2-x-2--2-2-2-2-2-2-2-2-2-2-2|  x14
A|-2-0-x-2--2-2-2-2-2-2-2-2-2-2-2|
E|-3---x-0--0-0-0-0-0-0-0-0-0-0-0|

Guitar 2

E|---------------------------------------------------------------------------------|
B|---------------------------------------------------------------------------------|
G|-14b-14b-14b-14b-14b-14b-14b-12--------------12---12-----------------------------|
D|--------------------------------14-12-14--14---14---14--14-12---12--14-14-14b~~~-|
A|--------------------------------------------------------------14-----------------|
E|---------------------------------------------------------------------------------|


E|-------------------------------------------------------------------------------|
B|-------------------------------------------------------------------------------|
G-12-14-14-14b-14b-14b-14b-14b-14b-14b-14b-14b-14--12--12----12-14-14b-12--------|
D|--------------------------------------------------------14---------------------|
A|-------------------------------------------------------------------------------|
E|-------------------------------------------------------------------------------|

E|-------------------------------------------------------|
B|-------------------------------------------------------|
G|-14b-14b-14b-14b-14b-14b-14b-12-------------12---12----|
D|--------------------------------14-12-14-14---14----14~|
A|-------------------------------------------------------|
E|-------------------------------------------------------|

Chorus

E|------------------------------------------|
B|---------5-5-----0--0-0-0--0-0-0-0--0-0-0-|
G|-7-7-x-x-6-6-x-x-1--1-1-1--1-1-1-1--1-1-1-|
D|-7-7-x-x-7-7-x-x-2--2-2-2--2-2-2-2--2-2-2-| x4
A|-5-5-x-x-7-7-x-x-2--2-2-2--2-2-2-2--2-2-2-|
E|---------5-5-x-x-0--0-0-0--0-0-0-0--0-0-0-|

Guitar 1

E|-3-3-x-x-0-0-x-x-0--0-0-0--0-0-0-0--0-0-0-|
B|-3-3-x-x-2-2-x-x-0--0-0-0--0-0-0-0--0-0-0-|
G|-0-0-x-x-2-2-x-x-1--1-1-1--1-1-1-1--1-1-1-|  x4 During Solo
D|-0-0-x-x-2-2-x-x-2--2-2-2--2-2-2-2--2-2-2-|
A|-2-2-x-x-0-0-x-x-2--2-2-2--2-2-2-2--2-2-2-|
E|-3-3-x-x---------0--0-0-0--0-0-0-0--0-0-0-|

Guitar 2

E|------------------------------------------------------------------------|
B|------------------------------------------------------------------------|
G|14b-14b-14b-14b-14b-12-------------12--12------------------12-14-14b-12-|
D|-----------------------14--14-12-14---14--14-14-12-14--12-14------------|
A|------------------------------------------------------------------------|
E|------------------------------------------------------------------------|

E|--------------------12-12-12-------------------------------------------------------------------|
B|-----------12-12-15----------15-12h15----12----------------------------------------------------|
G|-----12-14----------------------------14---14-12---------12--12--12---12-----------------------|
D|12-14-------------------------------------------14-12h14-------14---14--14-14-12---12-14-12----|
A|--------------------------------------------------------------------------------14---------14--|
E|-----------------------------------------------------------------------------------------------|

Chorus

E|------------------------------------------|
B|---------5-5-----0--0-0-0--0-0-0-0--0-0-0-|
G|-7-7-x-x-6-6-x-x-1--1-1-1--1-1-1-1--1-1-1-|
D|-7-7-x-x-7-7-x-x-2--2-2-2--2-2-2-2--2-2-2-| x4
A|-5-5-x-x-7-7-x-x-2--2-2-2--2-2-2-2--2-2-2-|
E|---------5-5-x-x-0--0-0-0--0-0-0-0--0-0-0-|

Ending

E|---------------------------------------------------------------5~|
B|---------------------------------------------------------------5~|
G|-4-4-x-7---7-7-7-7-7--4-4-x-7---7-7-7-7-7--4-4-x-7---7-7-7-7-7-6~|
D|-5-5-x-7---7-7-7-7-7--5-5-x-7---7-7-7-7-7--5-5-x-7---7-7-7-7-7-7~|
A|-5-5-x-5---5-5-5-5-5--5-5-x-5---5-5-5-5-5--5-5-x-5---5-5-5-5-5-7~|
E|-3-3-x----------------3-3-x----------------3-3-x---------------5~|


h - Hammer
b - Bend
~ - Let ring

Enjoy.
Tap to rate this tab
 
# A B C D E F G H I J K L M N O P Q R S T U V W X Y Z