Song name
# A B C D E F G H I J K L M N O P Q R S T U V W X Y Z

Brian Jonestown Massacre - What You Isnt tab

(/) Slide Up  (\) Slide Down  (h) Hammer On  (p) Pull Off  (b) Bend (r) Release (v) Vibrato

This is my first tab, and one of my favourite songs off the new Brian Jonestown Massacre 
Album. I believe its fairly accurate, but as always, please feel free to correct me.

Tabbed by Liam Hart

Standard tuning

Stave 1:

E|----------------------------------------------------------------------------------------|
B|----------------------------------------------------------------------------------------|
G|--9--7----------------------------------------------------------------------------------|
D|--------9--7--5--7--5--7--9--7--5--7--5/7--5-----------5--------------------------5-----|
A|----------------------------------------------7--5--7-----7--7--7--5--7--7--5--7-----7--|
E|----------------------------------------------------------------------------------------|

Stave 2:

E|--------------------------------------|
B|--------------------------------------|
G|--------------------------------------|
D|--------------------5-----5-----5--7--|
A|--7--7--5--7--7--7-----7-----7--------|
E|--------------------------------------|
Tap to rate this tab
# A B C D E F G H I J K L M N O P Q R S T U V W X Y Z