Song name
# A B C D E F G H I J K L M N O P Q R S T U V W X Y Z

Brian Jonestown Massacre - My Man Std tab

e|-4--------3-----------------------------|
B|---4---------3---------------3--3--5--5-|
G|------5---------4---5-----5-------------|
D|----------------------------------------|
A|----------------------------------------|
E|----------------------------------------|


e|-4--------3-----------------------------|
B|---4---------3--------------------------|
G|------5---------4---5-----5--5--4--4----|
D|----------------------------------------|
A|----------------------------------------|
E|----------------------------------------|

e|-4--------3-------|
B|---4---------3----|
G|------5---------4-|
D|------------------|
A|------------------|
E|------------------|

Tap to rate this tab
 
# A B C D E F G H I J K L M N O P Q R S T U V W X Y Z