Song name
# A B C D E F G H I J K L M N O P Q R S T U V W X Y Z

Brian Jonestown Massacre - Here It Come tab

HERE IT COME


Intro:
(A is usually played like this:)

e-0-0-0-0-0-0-0-0-0-0-0-0-0-|
B-2-2-2-3-3-0-2-2-2-3-3-0-2-|
G-2-2-2-2-2-2-2-2-2-2-2-2-2-|
D-2-2-2-2-2-2-2-2-2-2-2-2-2-|
A-0-0-0-0-0-0-0-0-0-0-0-0-0-|   etc.
E-0-0-0-0-0-0-0-0-0-0-0-0-0-|

then:

G D

A

A
Oh mom and dad
A
couldnt believe
A
they made me so mad
A
i had to leave

G

D
Ohhhh
A
here it comes

Solo:
  A
e------------------------------------------------------------|
B------------------------------------------------------------|
G---------------------------------------7-7-6-6h7/9-9-/12-12-|
D-7-7-7p5---5h7-7-7/9\7-7-5---5-7-7/9\7----------------------|
A---------7-----------------7--------------------------------|
E------------------------------------------------------------|
                            G            D              A
e------------------------------------------------------------|
B-10--------10-10-10-/12-10----------------------------------|
G---12-9-12-----------------12-12-12-12-11/9-7-/11-\9--7-2-2-|
D------------------------------------------------------------|
A------------------------------------------------------------|
E------------------------------------------------------------|
                                     G                     D          A
e------------------------8---10-9-10-12-12/15-15/17^-17^---10^^-|
B-10-10-8---8-10-10-10-8---8------------------------------------|
G---------9-----------------------------------------------------|
D---------------------------------------------------------------|
A---------------------------------------------------------------|
E---------------------------------------------------------------|
Tap to rate this tab
# A B C D E F G H I J K L M N O P Q R S T U V W X Y Z