Song name
# A B C D E F G H I J K L M N O P Q R S T U V W X Y Z

Brian Jonestown Massacre - If I Love You tab

Highlighted       Show chord diagrams
IF I LOVE YOU

CHORDS USED (E-A-D-G-B-E)
A (0-0-2-2-2-0)----|
D (x-x-0-3-2-3)----|
Dsus (x-x-0-3-2-0)-|
E (0-2-2-1-0-0)----|

 A
e--0---0----0-----0-0---|
B--0---3----3-----2-2---|
G--2---2----2-----2-2---|
D-----------------------|
A-----------------------|
E-----------------------|
   If  I   love   you

     D               Dsus         E
If I love you girl I want you to know
        A                     D   Dsus
that im never ever letting it go
   E  A   E
if i show you

A
if i show you
     D               Dsus        E
if i show you girl i want you to know
         A                      D   Dsus
its the only way im letting it flow
   E  A   E
if i tell you
Tap to rate this tab
# A B C D E F G H I J K L M N O P Q R S T U V W X Y Z