Song name
# A B C D E F G H I J K L M N O P Q R S T U V W X Y Z

Brian Jonestown Massacre - Lantern tab

Highlighted       Show chord diagrams
LANTERN

Chords used (E-A-D-G-B-E)
A (0-0-2-2-2-0)-----|
E (0-2-2-1-0-0)-----|
G (3-2-0-0-0-1)-----|
D (x-x-0-2-3-2)-----|
Asus4 (0-0-2-2-3-0)-|
C (0-3-2-0-1-0)-----|

A          E           G                  D      AAsus4 A
you can become all the good things you believe
        A             E           G               D  
  A Asus4 A
you can live life as one just as long as you are free
        A        E             G             D      AAsus4 A
and be happy i know, its the lantern i have seen
     C   G   D
i know...

soloey thing: (all variations on this)
E-----------------------------------|
B---------7h10----7-10-10-12-10-7---|
G-9-9-9-9------9-9----------------9-|
D-----------------------------------|
A-----------------------------------|
E-----------------------------------|
Tap to rate this tab
 
# A B C D E F G H I J K L M N O P Q R S T U V W X Y Z