Song name
# A B C D E F G H I J K L M N O P Q R S T U V W X Y Z

Brian Jonestown Massacre - Mansion In The Sky tab

MANSION IN THE SKY

CHORDS USED
Am (0-0-2-2-1-0)--|
G (3-2-0-0-0-3)---|
Am? (0-0-2-2-3-0)-|
D (x-x-0-3-2-3)---|

 Am      G      Am    Am? Am          
    Am   Am?
e------------------------------------------------------|
B------------------------------------------------------|
G-------------------7-5--------------------------7-5---|
D-7-7-7/9-5---5-7-7-----7--5h7-7-7-7/9-5---5-7-7-----7-|
A-----------7----------------------------7-------------|
E------------------------------------------------------|
        D                   Am             Am? Am
e-------------------------------------------------------|
B---------------------8-8-8/10-10-10--------------------|
G---5h7-7^---5h7/9-9-9-9-9--------------7-5-------------|
D-7---------7-------------------------------7-5h7-7-7/9-|
A-------------------------------------------------------|
E-------------------------------------------------------|

  G    Am   Am? Am
e------------------|
B------------------|
G----------7-5-----|
D-5---5-7------7---|
A---7--------------|
E------------------|

      Am              G                 Am  Am? Am
Could you forget the awful things ive done
      Am              G                 Am  Am? Am
could you forget the awful things ive done
    D                               Am  Am? Am
im sure i will become your favorite son
   Am               G                Am  Am? Am
if you forgive the awful things ive done
Tap to rate this tab
# A B C D E F G H I J K L M N O P Q R S T U V W X Y Z