Song name
# A B C D E F G H I J K L M N O P Q R S T U V W X Y Z

Brian Jonestown Massacre - My Man Syd tab

Highlighted       Show chord diagrams
MY MAN SYD

Chords used (E-A-D-G-B-E)
G# (4-6-6-5-4-4)---------|
G (3-5-5-4-3-3)----------|
C (3-3-5-5-5-3)----------|
F (1-3-3-2-1-1)----------|
F# (2-4-4-3-2-2)---------|
Bb (1-1-3-3-3-1) or (6-8-8-5-6-6)-|

Intro:

  G#      G         C              G#       
      C
e---4--------3------3-----------------4-------3-----3------------|
B-----4--------3----5-----3-3/5-5-------4------3----5------------|
G-------5--------4--5---5-----------------5-----4---5--5-5-4-4p0-|
D-6--------5--------5---------------6-------5-------5------------|
A-6--------5--------3---------------6-------5-------3------------|
E-------------------3-------------------------------3------------|

 G#       G         F
e---4--------3------1----|
B-----4--------3----1----|
G-------5--------4--2----|
D-6--------5--------3----|
A-6--------5--------3----|
E-------------------1----|
                   "oh..."


F               F    F#      G
Oh... If youre gonna play at my house
        Bb       F
you're going to share
           F      F#   G
cause its getting very cold out
       Bb          F
although you dont care about you
   Bb       F            G#  G
know its unfair to doubt you

F                F      F#         G
liar... and the wicked games that you play
       Bb        F
the rules are unfair
         F       F#       G
and its not the thing that you say
           Bb         F
your friends are all squares, they doubt you
        Bb        F          G#  G  C
they dont really care about you

G# G C
G# G F
Tap to rate this tab
# A B C D E F G H I J K L M N O P Q R S T U V W X Y Z