Song name
# A B C D E F G H I J K L M N O P Q R S T U V W X Y Z

Brian Jonestown Massacre - She Made Me tab

SHE MADE ME

CHORDS USED
E (0-2-2-1-0-0)
B (2-2-4-4-4-2)
D (x-x-0-2-3-2)
A (0-0-2-2-2-0)
C (0-3-2-0-1-0)

(NOTE: This is how I play it with one guitar. I think it sounds good,
 and it allows you to play along with the song. Chances are,
 however, that it's far from right. The actual version has a droning
 note the entire time)

Intro:

  E               B
e-0-0-0-0-0-0-0-0-2-2-2-2-2-2-2-2--|
B-0-0-0-0-0-0-0-0-4----------------|
G-1---------------4----------------|
D-2---------------4----------------|
A-2---------------2----------------|
E-0---------------2----------------|

  D               Asus?
e-2-2-2-2-0-0-0-0-0----------------|
B-3-3-3-3-3-3-3-3-0-0-0------------|
G-2---------------2----2-2-2-2-2---|
D-0---------------2----------------|
A-----------------0----------------|
E-----------------0----------------|

  E               B
e-0-0-0-0-0-0-0-0-2--------------------|
B-0-0-0-0-0-0-0-0-4-4-4-4^-4^-4^-4^-4^-|
G-1---------------4--------------------|
D-2---------------4--------------------|
A-2---------------2--------------------|
E-0---------------2--------------------|

  D               Asus?
e-2-2-2-2-0-0-0-0-0----------------|
B-3-3-3-3-3-3-3-3-0-0-0------------|
G-2---------------2----2-2-2-2-2---|
D-0---------------2----------------|
A-----------------0----------------|
E-----------------0----------------|

Verse:
  E
e-0--0-0-0-0-0-0-0-----------------|
B-0-0-0-0-0-0-0-0-0----------------|
G-1--------------------------------|
D-2--------------------------------|
A-2--------------------------------|
E-0--------------------------------|
  I would wait forever

  D
e-2---2--0--0--0---2----------------|
B-3---3---3--3--3-3-3---------------|
G-2-2--2---2--2--2------------------|
D-0---------------------------------|
A-----------------------------------|
E-----------------------------------|
  Waiting for the day

  E
e-0--0-0-0-0-0-0-0-----------------|
B-0-0-0-0-0-0-0-0-0----------------|
G-1--------------------------------|
D-2--------------------------------|
A-2--------------------------------|
E-0--------------------------------|
  Waiting till the moment comes

  C
e-0-0-0-0----------------------------|
B-1-------3-3-3-3-0-0-0-0------------|
G-0-----------------------2-2-2-2----|
D-2----------------------------------|
A-3----------------------------------|
E-0----------------------------------|
  When I hear you say

      E
That you'll be mine forever
    D
Or until our dying day
          E
Theres nothing that can stop me now
     C
From acting in this way

Chorus:
E            B                   D
She tries so hard but she just couldnt show it
C
Show it all to me
E            B                         D
She tries so hard I believe she can do it
    C
She does it all for free
Tap to rate this tab
# A B C D E F G H I J K L M N O P Q R S T U V W X Y Z