Song name
# A B C D E F G H I J K L M N O P Q R S T U V W X Y Z

Brian Jonestown Massacre - Short Wave tab

Help us improve GuitareTab! Take a short survey!
SHORT WAVE (not very strong without bass, but one of my favorites)


Main bit:
e------------------------------|
B----------10^---------0-7^----|
G-/9-9-9-7------/7-7-7---------|
D------------------------------|
A------------------------------|
E------------------------------|

She's barking...   right at the door
She's talking...          It's not like       before
e-----0--------0----------0-------0---0----||-0-0-0-0-0-0-0--|
B---3--3-3---3--3--------7-7--7-7--7-7-7---||-7-7-7-7-7-7-7--|
G--2-2--2-----2--2------6---6--6----6---6--||-6-6-6-6-6-6-6--|
D-0---------0------------------------------||---------0-0-0--|
A------------------------------------------||----------------|
E------------------------------------------||----------------|
Related for Short Wave tab