Song name
# A B C D E F G H I J K L M N O P Q R S T U V W X Y Z

Brian Jonestown Massacre - This Is Why You Love Me tab

Highlighted       Show chord diagrams
THIS IS WHY YOU LOVE ME

Chords used (E-A-D-G-B-E)
A (0-0-2-2-2-0)-----|
D (x-x-0-2-3-2)-----|
Dsus (x-x-0-2-3-0)--|
G (3-2-0-0-0-3)-----|
Asus4 (0-0-2-2-3-0)-|
E (0-2-2-1-0-0)-----|
C (0-3-2-0-1-0)-----|


		A
I heard you say
           D  Dsus
He痴 gone away
      G              D  A Asus4 E
Well everything okay, hey
    D         A Asus4 E
I知 going to stay

                A
So dry your eyes
            D  Dsus
I値l never lie
       G          D        A Asus4 E
I値l hurt you like he did, hey
    D         A Asus4 E
Come out and play

D                                        A
  He never did nothing cept for drag you down
         C          G      E
You can rest your head
               D       A Asus4 E
Cause we値l be laying around

                  A
And I知 here to say
                 D  Dsus
That there痴 no way
      G          D          A Asus4 E
He loves you like I do, Hey
     D           A
Come out and play


Solo bit:
E--------------------------------------------------------------------------------------------|
B-----10---10--------------------------------------------------------------------------------|
G--9-----9----9-9-9--------------------9-9-11-9-9-9-11-----9---------------------------------|
D---------------------12-12-11-11-12---------------------------11-11-11-9--------------------|
A-------------------------------------------------------------12-----------------12-12-------|
E-----------------------------------------------------------------------------------------12-|

E--------------------------------------------------------------------------------------------|
B--------------------------------------------------------------------------------------------|
G--------------------------------------------------------------------------------------------|
D--11-9--------------------------------------------------------------------------------------|
A---------12-12------------------------------------------------------------------------------|
E-----------------12-------------------------------------------------------------------------|
Tap to rate this tab
# A B C D E F G H I J K L M N O P Q R S T U V W X Y Z