Song name
# A B C D E F G H I J K L M N O P Q R S T U V W X Y Z

Brian Jonestown Massacre - Vacuum Boots tab

Highlighted       Show chord diagrams
VACUUM BOOTS

(On the album, this song is in Bb. anton has told me that it is in A, and thats how it was played live.
 however, it sounds much better in Bb especially if you want to play along with the CD)

Chords used (E-A-D-G-B-E)
Bb (6-8-8-7-6-6)
D# (6-6-8-8-8-6)
C# (4-4-6-6-6-4)
G# (4-6-6-5-4-4)
F# (2-4-4-3-2-2)

Intro chords: Bb D# C# G# D#

 Bb      D#                C#       G#     D# Bb      D#         C#     G#     D#
e-6-6-6h8------------------6---------------6h8-6-6-6---------------------------|-6h8-6--|
B---------9--9-9-9-9-8-9-8--9-9-9-9-9-9...-----------9-8-8-8-8-6-8-8/9-9-9-9-9-|--------|
G------------------------------------------------------------------------------|--------|   x2
D------------------------------------------------------------------------------|--------|
A------------------------------------------------------------------------------|--------|
E------------------------------------------------------------------------------|--------|

then
 D#     Bb
e------------|
B-9-8--------|
G----8-7-----|
D--------7---|
A------------|
E------------|

most Bbs are played like this: e-6----6-6-6-6---|
      (move your pinky to the  B-6----6-6-6-6---|
        G String)              G-7----8-7-8-7---|
                               D-8----6-8-6-8---|
                               A-8----8-8-8-8---|
                               E-6----6-6-6-6---|


Bb

     F#              D#                  Bb
Your beautiful and i wish that you could see
    F#               D#                Bb
and stay the same as you have always been
                F#       D#    Bb
oo cause you're wonderful
    F#                     D#
you live in a lie cause it makes you happy
    F#                      D#
you do what you like if you want you can ask me

Bb     D#                   C#           G#          
 D#     D#
what i know is i never know nothing so i know that i need to learn
Bb       D#    C#  G#  D# D#  Bb
where to go ohh
Tap to rate this tab
# A B C D E F G H I J K L M N O P Q R S T U V W X Y Z