Song name
# A B C D E F G H I J K L M N O P Q R S T U V W X Y Z

Brian Jonestown Massacre - Whoever You Are tab

WHOEVER YOU ARE

CHORDS USED (E-A-D-G-B-E)
A (0-0-2-2-2-0)-----|
Asus4 (0-0-2-2-3-0)-|
Asus? (0-0-2-2-0-0)-|
G (3-2-0-0-0-3)-----|
D (x-x-0-3-2-3------|


Intro:
e-12-----------12-10-9-------9-10----9-10-9----9---|
B-------10-------------10--10-----10--------10-----|
G--------------------------------------------------|
D--------------------------------------------------|
A--------------------------------------------------|
E--------------------------------------------------|

e-10-10-10-10-10-10-10-10-10-10-10-10-10-12-10-12--|
B-----------------------------------------------------------|
G-----------------------------------------------------------|
D-----------------------------------------------------------|
A-----------------------------------------------------------|
E-----------------------------------------------------------|

e------------12-10-9-------9-10----9-10-9----------|
B--------------------10--10-----10--------10-10-10-|
G--------------------------------------------------|
D--------------------------------------------------|
A--------------------------------------------------|
E--------------------------------------------------|

e-------------------------------------------------|
B---10--------------------------------------------|
G-9----9-9-9--------------------------------------|
D------------12-11----12-11-----------------------|
A------------------12-------12--------------------|
E-------------------------------------------------|

A
I
          Asus4
Will Take you
         A
Far away
Asus?
deep
   A
inside
     Asus4
won't beg you
A
step inside
Asus?
please


Em                D
let me take you down
                  A
to the place im going
Em                     D
more than treasure found
                   A
it's just been knowing you
Tap to rate this tab
# A B C D E F G H I J K L M N O P Q R S T U V W X Y Z