Song name
# A B C D E F G H I J K L M N O P Q R S T U V W X Y Z

Brian Jonestown Massacre - Nailing Honey To The Bee tab

Main Rythme

    A
e---------------------|
B---22-222-222-222----|
G---22-222-222-222----|
D---22-222-222-222----|
A---00-000-000-000----|
E---------------------|


Chorus/Break thing

    A GC D 
e-----20-2--|
B---2-21-3--|
G---2-00-2--|
D---2-02-0--|(x4)
A---0-23----|
E-----3-----|

    E
e-------------------------...---|
B-------------------------...---|
G---1111111111111111111111...---|
D---2222222222222222222222...---|
A---2222222222222222222222...---|
E-------------------------...---|

Listen to song to get the rythme in your heart.
Tap to rate this tab
 
# A B C D E F G H I J K L M N O P Q R S T U V W X Y Z