Song name
# A B C D E F G H I J K L M N O P Q R S T U V W X Y Z

Brian Kahanek - Gemini tab

                                    Gemini - Brain Kahanek                                  




Tuning: Standard
Tempo:120 bpm

                                                        
Lead Guitar



     W                   W                   W                 
E||-------------------|-------------------|-------------------|
B||-------------------|-------------------|-------------------|
G||-------------------|-------------------|-------------------|
D||-------------------|-------------------|-------------------|
A||-------------------|-------------------|-------------------|
E||-------------------|-------------------|-------------------|


  W                   H        Q    S   S E   
-------------------|-------------------------|
-------------------|-------------------------|
-------------------|----------------------9--|
-------------------|----------------9h-11----|
-------------------|-------------------------|
-------------------|-------------------------|


    Q      E.   S  E   E  E     E      E  S   S Q     Q    S   S E   
-----------------------------------|--------------------------------|
--/12~----12---12-12--10--9--9g10--|---L--------9~----L-------------|
--/13~----13---13-13--11--9--9g11--|---L--------9~----L----------9--|
-----------------------------------|------9h-11------------9h-11----|
-----------------------------------|--------------------------------|
-----------------------------------|--------------------------------|


     E   E   E   E     E  E   E  E     E  S   S Q     Q    S   S E   
------------------------------------|-------------------------------|
----10----------10------------------|-----------9~----L-------------|
--9g11p--9-------9-----9---------9--|--L--------9~----L----------9--|
------------12------9g11--9------9--|--L--9h-11------------9h-11----|
-----------------------------12-----|-------------------------------|
------------------------------------|-------------------------------|


    Q      E.   S  E   E  E    E     E  E     Q    Q    S   S E   
----------------------------------|------------------------------|
--/12~----12---12-12--10--9--/12--|--L--9--9g10----L-------------|
--/13~----13---13-13--11--9--/13--|--L--9--9g11----L----------9--|
----------------------------------|---------------------9h-11----|
----------------------------------|------------------------------|
----------------------------------|------------------------------|


    E   E  E  E  E  E    E  E      W                   Q     Q     Q    Q       
--------------------------------|-------------------|--------------------------|
-------10-----9-----7-------5~--|--L----------------|--L----17b----L----Lbr----|
--------------------------------|-------------------|--------------------------|
--/11------9-----7-----5g6------|-------------------|--------------------------|
--------------------------------|-------------------|--------------------------|
--------------------------------|-------------------|--------------------------|


                                                  |---3---|              
  Q      Q       S  E.    Q        S  E.    Q     S   S   S  E   E   E   
-------------------------------|----------------------------------------|
--Lbr----Lbr----14-------------|----------------------------------------|
-------------------14~---14----|--14-------------14h-16p-14-----14--16--|
-------------------------------|-----16~---16---------------16----------|
-------------------------------|----------------------------------------|
-------------------------------|----------------------------------------|


   E    E   E   E    S  E.   Q         S  S  E     S  S  S  S  Q      Q      
-----------------------------------|----------------------------------------|
-----------------------------------|--------16br--14----16----14~----14~----|
--16b--14--16--16b--14-------------|--14-16-16br--14----16----14~----14~----|
-----------------------16---16~----|-----------------16----16---------------|
-----------------------------------|----------------------------------------|
-----------------------------------|----------------------------------------|


   Q      Q      E    Q.         Q     Q      S   S   S  S  S  S  S  S   
---------------------17b------|--L----17~----14h-17p-14----16----14-----|
--14~----14~----14~-----------|-------------------------17----17----17h-|
--14~----14~----14~-----------|-----------------------------------------|
------------------------------|-----------------------------------------|
------------------------------|-----------------------------------------|
------------------------------|-----------------------------------------|


   S  S  S  S  S     S  S  S  S   S  Q     E   
----------------------------------------------|
--14----17----14------------------------------|
-----16----16----14g16-14----14h-16-14~----L--|
--------------------------16------------------|
----------------------------------------------|
----------------------------------------------|


  Q     S  S S  S    Q      E     E   
-------------------------------------|
---------------------9~----11-----9--|
--L\---------8----9g10~----11--9g10--|
--------8-11---11--------------------|
-------------------------------------|
-------------------------------------|


  E   S  S  S  S S   S    E   S  S  Q        Q    S  S E     Q     E     E   
------------------------------------------|---------------------------------|
--L-----------------------9---------------|------------------9----11-----9--|
--L--------------------9g10---------------|------------8--9g10----11--9g10--|
-----11p-9-11-11-9h-11-------11p-9-11~----|--L----8-11----------------------|
------------------------------------------|---------------------------------|
------------------------------------------|---------------------------------|


  E   E      E   S     E   S     E   S  E   S  
----------------------------------------------|
--L-------------14--------12--------14-----14-|
--L-------------------------------------------|
-----11--13g15-----15g13-----13g15-----15-----|
----------------------------------------------|
----------------------------------------------|


   Q    S  S E     Q      E     E     E  S   S S   S S S  S  S  S S E     S  S  
-----------------------------------|-------------------9-----------------------|
-------------------9~----11-----9--|--L--------------9---12p-9----9------------|
--13---------8--9g10~----11--9g10--|--L--------9h-10-----------11---9b~--------|
--15----8-11-----------------------|-----9h-11---------------------------11p-9-|
-----------------------------------|-------------------------------------------|
-----------------------------------|-------------------------------------------|


   Q     S  S E     Q      E     E     E  Q     Q     Q     E   
------------------------------------|-----8-----9----10----11--|
--------------------9~----11-----9--|--L--8-----9----10----11--|
-----------------9g10~----11--9g10--|--L--9----10----11----12--|
--11~----8-11-8---------------------|--------------------------|
------------------------------------|--------------------------|
------------------------------------|--------------------------|


    Q      E.   S  E   E  E     E      E  S   S Q     Q    S   S E   
-----------------------------------|--------------------------------|
--/12~----12---12-12--10--9--9g10--|---L--------9~----L-------------|
--/13~----13---13-13--11--9--9g11--|---L--------9~----L----------9--|
-----------------------------------|------9h-11------------9h-11----|
-----------------------------------|--------------------------------|
-----------------------------------|--------------------------------|


     E   E   E   E     E  E   E  E     E  S   S Q     Q    S   S E   
------------------------------------|-------------------------------|
----10----------10------------------|-----------9~----L-------------|
--9g11p--9-------9-----9---------9--|--L--------9~----L----------9--|
------------12------9g11--9------9--|--L--9h-11------------9h-11----|
-----------------------------12-----|-------------------------------|
------------------------------------|-------------------------------|


    Q      E.   S  E   E  E    E     E  E     Q    Q    S   S E   
----------------------------------|------------------------------|
--/12~----12---12-12--10--9--/12--|--L--9--9g10----L-------------|
--/13~----13---13-13--11--9--/13--|--L--9--9g11----L----------9--|
----------------------------------|---------------------9h-11----|
----------------------------------|------------------------------|
----------------------------------|------------------------------|


    E   E   E   E   E  E  S   S E     W                 
-------14------12------9-----------|-------------------|
--/14------12------/9-----------9--|--L----------------|
--------------------------------9--|--L----------------|
--------------------------9h-11----|-------------------|
-----------------------------------|-------------------|
-----------------------------------|-------------------|


  Q     Q     Q    Q         Q      Q       S  E.    Q     
--------------------------|-------------------------------|
--L----17b----L----Lbr----|--Lbr----Lbr----14-------------|
--L-----------------------|-------------------14~---14----|
--------------------------|-------------------------------|
--------------------------|-------------------------------|
--------------------------|-------------------------------|


                  |---3---|      |---3---|      
   S  E.    Q     S   S   S  E   S   S   S  E   
-----------------------------------------------|
-----------------------------------------------|
--14-------------14h-16p-14--------------------|
-----16~---16---------------16--14h-16p-14-----|
-------------------------------------------16--|
-----------------------------------------------|


   E   E   E    E    S  E.    Q      
------------------------------------|
------------------------------------|
--14--16--16b--16b--14--------------|
-----------------------16~---16~----|
------------------------------------|
------------------------------------|


                              |---3---|        
   S   S  S  S  Q      Q      S   S   S  S  S  
---------14-14--------------------------------|
---------------17b----17~----14h-17p-14----14-|
--14h-15--------------------------------17----|
----------------------------------------------|
----------------------------------------------|
----------------------------------------------|


                                   |---3---|      
   S  S  S  S  S   S  E   E    E   S   S   S  E   
-------------------------------------------------|
---------------------17--------------------------|
--17-16-14----16s-18-----16b--16--14h-16p-14-----|
-----------16--------------------------------16--|
-------------------------------------------------|
-------------------------------------------------|


                     |---3---|                                    
   H          Q      S   S   S  E      E   E   E   H          E   
--17b--------17~----14h-17p-14-----|--14-------------------------|
-------------------------------17--|------14--17--17b~--------L--|
-----------------------------------|-----------------------------|
-----------------------------------|-----------------------------|
-----------------------------------|-----------------------------|
-----------------------------------|-----------------------------|


  Q     S  S S  S    Q      E     E   
-------------------------------------|
--L\-----------------9~----11-----9--|
-------------8----9g10~----11--9g10--|
--------8-11---11--------------------|
-------------------------------------|
-------------------------------------|


  E   S  S  S  S S   S    E   S  S  Q        Q    S  S E     Q      E     E   
------------------------------------------|----------------------------------|
--L-----------------------9---------------|------------------9~----11-----9--|
--L--------------------9g10---------------|------------8--9g10~----11--9g10--|
-----11p-9-11-11-9h-11-------11p-9-11~----|--L----8-11-----------------------|
------------------------------------------|----------------------------------|
------------------------------------------|----------------------------------|


  E  S   S S S  S  S  S S E    E  E      Q     S  S E     Q      E     E   
-------------9-----------------------|------------------------------------|
--L--------9---12p-9----9------------|--------------------9~----11-----9--|
--L--9h-10-----------11---9b---------|-----------------9g10~----11--9g10--|
------------------------------11--9--|--11~----8-11-8---------------------|
-------------------------------------|------------------------------------|
-------------------------------------|------------------------------------|


                                        |--3--|  
  E  S   S  S  S  S  S  S  S S  S  S S  S  S  S  
--------------------12p-9----9-11-12-9-11p-9----|
--L--------12p-9----------11-----------------12-|
--L--9h-10-------10-----------------------------|
------------------------------------------------|
------------------------------------------------|
------------------------------------------------|


  S  S  S  S  S  S S  S  S  S  S  S S   S E      E   Q     Q      Q     S   S  
--9-------------------------------------------|-------------------------------|
----12p-9----12----9--------------------------|-------------------------------|
----------11----11---11p-9----11----9h-11-9b--|--L----------------------9h-11-|
---------------------------11----11-----------|-----11~----9b----11~----------|
----------------------------------------------|-------------------------------|
----------------------------------------------|-------------------------------|


    Q      E.   S  E   E  E     E      E  S   S Q     Q    S   S E   
-----------------------------------|--------------------------------|
--/12~----12---12-12--10--9--9g10--|---L--------9~----L-------------|
--/13~----13---13-13--11--9--9g11--|---L--------9~----L----------9--|
-----------------------------------|------9h-11------------9h-11----|
-----------------------------------|--------------------------------|
-----------------------------------|--------------------------------|


     E   E   E   E     E  E   E  E     E  S   S Q     Q    S   S E   
------------------------------------|-------------------------------|
----10----------10------------------|-----------9~----L-------------|
--9g11p--9-------9-----9---------9--|--L--------9~----L----------9--|
------------12------9g11--9------9--|--L--9h-11------------9h-11----|
-----------------------------12-----|-------------------------------|
------------------------------------|-------------------------------|


    Q      E.   S  E   E  E    E     E  E     Q    E    E   E   E   
----------------------------------|--------------------------------|
--/12~----12---12-12--10--9--/12--|--L--9--9g10----L-------12--14--|
--/13~----13---13-13--11--9--/13--|--L--9--9g11----L--/13----------|
----------------------------------|--------------------------------|
----------------------------------|--------------------------------|
----------------------------------|--------------------------------|


   Q      E      E   E    E   E   E     W                                     
--14b----14pbr--12--15b--15--14--12--|--L----------------|-------------------|
-------------------------------------|-------------------|-------------------|
-------------------------------------|-------------------|-------------------|
-------------------------------------|-------------------|-------------------|
-------------------------------------|-------------------|-------------------|
-------------------------------------|-------------------|-------------------|


                                    |--3--|              
  H        E   E  Q       S  Q.     S  S  S  Q     S E   
-----------------------|--------------------------------|
------------------5----|--7s-9------7h-9p-7s-5----/9-7--|
-----------------------|--------------------------------|
--------------/6-------|--------------------------------|
-----------------------|--------------------------------|
-----------------------|--------------------------------|


  H        Q    E   E     Q     E     E    Q      E     E    
-----------------------|------------------------------------|
--L--------L----7s--9--|--5----(7)s--(9)--(5)----(7)s--(9)--|
-----------------------|------------------------------------|
-----------------------|------------------------------------|
-----------------------|------------------------------------|
-----------------------|------------------------------------|


   Q     Q.      E   E  E     Q     E  Q     Q      E   
---------------------------|---------------------------|
--(5)------------5h--7--5--|--4h----5--4h----5----2g4--|
---------------------------|---------------------------|
---------------------------|--2-----L--2-----L------2--|
---------------------------|---------------------------|
---------------------------|---------------------------|


                                  >                             
  E    E   Q     H             E  E  E  E    S S   Q      S  S  
--------------------------|------------------------------------|
--L--2g4p--2~-------------|------------------------------------|
--------------------------|------------------------------------|
-------2------------------|------------------------------------|
--------------------------|-------7--9--9br--7---7g9----7g9p-7-|
--------------------------|--7g9---------------9---------------|


                                    |--3--|                     
  S S   E  Q.       E  E  E     E   S  S  S E  E  E  E   E  E   
-----------------------------|---------------------------------|
-----------------------------|---------------------------------|
-----------------------4--6--|--6h--7p-6p-4----4--6--4s--1-----|
-------------------/6--------|--------------7---------------2--|
--7---7g9--7~----------------|---------------------------------|
----9------------------------|---------------------------------|


  E  E    E  Q     Q.          E  E   E   E   E   E   E  E   
--------------------------|---------------------------------|
--------------------------|---------------------------------|
--2-----0g1---------------|-------9------11b--9--11------9--|
-----2-------2~-----------|--/11-----11--------------11-----|
--------------------------|---------------------------------|
--------------------------|---------------------------------|


                                                          |---3--|      
   Q      E   Q      E.   E.      Q       E   E    E   E  S   S  S  E   
--------------------12--------|----------------------------------------|
---------12--------------12---|------------------/12--10--9h-10p-9-----|
--11b-----L--11b----------L---|--11pbr----9------/13--11--9h-11p-9-----|
------------------------------|--------------11--------------------11--|
------------------------------|----------------------------------------|
------------------------------|----------------------------------------|


  Q     H        Q        H         E    E  E  E     H          E.  S  E.  S  
-----------------------|--------------------0-----|--------------------------|
--9\-------------------|-----------------------3--|--L-----------------------|
--9\-------------------|---------------2g4--------|-----------4g2---0h-2---0-|
-----------------------|--2~--------L-------------|--------------------------|
-----------------------|--------------------------|--------------------------|
-----------------3b----|--------------------------|--------------------------|


                                                  Pull`Down      
                                          >                      
                |--3--|                                          
  S  S E  Q     S  S  S E  E  E     E  E  Q.      Q         E    
---------------------------------|--------0---------------------|
---------------------------------|--------0------12b-------12b--|
--2p-0---------------------------|---------------12b-------12b--|
-------2--2~---------------0-----|--2---------------------------|
----------------0h-1p-0----------|------------------------------|
------------------------3-----3--|-----0------------------------|


                             Pull Down                                
  Q     S   S  Q     E   E   E           Q     E.    S  E   Q     E   
--------------------------------------|------------------------------|
--L-----------------12--12--12b-------|--L---------------------------|
--L-----------------12--12--12b-------|--L---------------------------|
-------14p-12-14----------------------|-------14~---12-14--14~----L--|
--------------------------------------|------------------------------|
--------------------------------------|------------------------------|


      S   Q      S  E.    S  S   S  E   E     Q     E   E   E   E   E   E   
-------------------------------------------|-------------------------------|
-------------------------------------------|-------------------------------|
-------------------------------------------|-------------------------------|
-------------------------------------------|-------------------------------|
--14g10h-12~----10-12~---10-12p-10---------|-----------10------11------12--|
-----------------------------------12--12--|--L----12------12------12------|


   E   S   S  S  S  H          S   S     Q      S   S  S   S  S  S  Q.        
-------------------------------------|--------------------------12-----------|
-------------------------------------|-----------------------12----15b~------|
-------------12----14b--------12h-14-|--12~-----------12h-13-----------------|
------12s-14----14-------------------|---------12h-14------------------------|
-------------------------------------|---------------------------------------|
--12---------------------------------|---------------------------------------|


          |---3--|       |---3--|       |---3--|  
  Q.      S  S   S  E    S  S   S  E    S  S   S  
---------12-------------12-------------12--------|
--L---------15p-12-15b-----15p-12-15b-----15p-12-|
-------------------------------------------------|
-------------------------------------------------|
-------------------------------------------------|
-------------------------------------------------|


   Q      Q      S  S  S  S   S  S  S  S  
--15b----15~----12----12-----------------|
-------------------15----15p-12----15----|
--------------------------------14----14-|
-----------------------------------------|
-----------------------------------------|
-----------------------------------------|


      |---3---|                                           
   S  S   S   S  S  S  S  S   S  S   S  S  S  S  S  S  S  
---------------------------------------------------------|
--12-----------------------------------------------------|
-----15p-14p-12----14----12h-13--------------------------|
----------------14----14--------14p-12-14-14-12----12----|
------------------------------------------------14----14-|
---------------------------------------------------------|


   S  S  S  S  S  S  S  S   S  S  S  S  S  S E      E  E  E  E  E  E  E  E   
-------------------------------------------------|--------------------------|
-------------------------------------------------|--------------------------|
-------------------------------------------------|--------------------------|
--12-------------14-----------14----------14-----|--------------------------|
-----14-13-12-11----11-11s-10----10-10s-9----9\--|--7--7--5--7--7--7--5--7--|
-------------------------------------------------|--------------------------|


                                                      Bass Solo         
  S  S E  E  E  Q     S  S E      W                   W                 
-------------------------------|-------------------|-------------------|
----------------8b-------------|-------------------|-------------------|
-------7--9--7--------9p-7-9~--|--L----------------|-------------------|
--7s-9-------------------------|-------------------|-------------------|
-------------------------------|-------------------|-------------------|
-------------------------------|-------------------|-------------------|


  W                   W                   W                   W                 
-------------------|-------------------|-------------------|-------------------|
-------------------|-------------------|-------------------|-------------------|
-------------------|-------------------|-------------------|-------------------|
-------------------|-------------------|-------------------|-------------------|
-------------------|-------------------|-------------------|-------------------|
-------------------|-------------------|-------------------|-------------------|


  W                   H        Q      Q         H          Q.         E     
-------------------|------------------------|------------------------------|
-------------------|----------------/14\----|--17b--------17pbr------17b~--|
-------------------|------------------------|------------------------------|
-------------------|------------------------|------------------------------|
-------------------|------------------------|------------------------------|
-------------------|------------------------|------------------------------|


   H         Q       E    E      E   E    E   Q       Q.      
-----------------------------|-------------------------------|
---L--------17br-------------|-------------------------------|
--------------------16b--14--|--16--16b--14--16brb----L------|
-----------------------------|-------------------------------|
-----------------------------|-------------------------------|
-----------------------------|-------------------------------|


                        |---3---|                            |---3---|      
   E.   E.   Q.         S   S   S  E      H           Q      S   S   S  E   
--17----------------------------------|------------------------------------|
-------17-----------------------------|------------------------------------|
------------16pbr------14h-16p-14-----|--14br------------------------------|
----------------------------------16--|--------------16~----14h-16p-14-----|
--------------------------------------|--------------------------------16--|
--------------------------------------|------------------------------------|


   H             S  E.   Q       E   E   E   Q     E     Q      
------------------------------|--------------------------------|
------------------------------|--------------------------------|
------------------------------|---------14--16b----Lpbr--Lb----|
------------------------------|-----16-------------------------|
--14brb--------/12------------|--------------------------------|
-------------------14---14----|--L-----------------------------|


   S  S  S  S  S  S  S  S  S  S  S  S  Q         Q     Q      Q      Q       
----------------------------------------------|-----------------------------|
--14----14------------------------------------|-----------------------------|
-----16----16-14----16----14------------------|-----------------------------|
-----------------16----16----16-14----14br----|--L----14br----Lb-----Lbr----|
-----------------------------------16---------|-----------------------------|
----------------------------------------------|-----------------------------|


  Q      H          Q     
-------------------------|
-------------------------|
-------------------------|
--Lb----14b~--------L----|
-------------------------|
-------------------------|


   |---6---|  |---6---|  |---6---|  |---6---|  |---6---|  |---6---|  |---6---|  
   S   S   S  S   S   S  S   S   S  S   S   S  S   S   S  S   S   S  S   S   S  
--14h-17p-14------------14h-19p-14------------14h-19p-14------------14h-16p-14--
-------------17p-14h-17------------17p-14h-17------------17p-14h-17------------1
--------------------------------------------------------------------------------
--------------------------------------------------------------------------------
--------------------------------------------------------------------------------
--------------------------------------------------------------------------------


   |---6---|  |---6---|  |---6---|  |---6---|  |---6---|  |---6---|  |---6---|  
   S   S   S  S   S   S  S   S   S  S   S   S  S   S   S  S   S   S  S   S   S  
--14h-17p-14------------14h-17p-14------------14h-19p-14------------14h-17p-14--
-------------17p-14h-17------------17p-14h-17------------17p-14h-17------------1
--------------------------------------------------------------------------------
--------------------------------------------------------------------------------
--------------------------------------------------------------------------------
--------------------------------------------------------------------------------


   |--6--|  |--6--|  |--6--|  |--6--|  |--6--|  |--6--|  |--6--|  |--6--|  
   S  S  S  S  S  S  S  S  S  S  S  S  S  S  S  S  S  S  S  S  S  S  S  S  
--14-16-17-16-14-16-14-16-14----14----------------------------------------|
-----------------------------17----17-16-17-16-14-16-14----14-------------|
--------------------------------------------------------17----17-16-14-16-|
--------------------------------------------------------------------------|
--------------------------------------------------------------------------|
--------------------------------------------------------------------------|


   H          Q     Q         S  E.    S  E.     H           
--------------------------|---------------------------------|
--------------------------|--17-------17--------------------|
--16br--------L----16b----|-----16b------16br---14b~--------|
--------------------------|---------------------------------|
--------------------------|---------------------------------|
--------------------------|---------------------------------|


  Q    H         Q          E    S  S   S  S  S  S  S  S  S  S  S  S  S   S  
------------------------|-------16------------------------------------------|
----------------15b~----|--15b-----15b-15-12----12--------------------------|
--L---------------------|--------------------15----15-14-12----14----12h-13-|
------------------------|-----------------------------------14----14--------|
------------------------|---------------------------------------------------|
------------------------|---------------------------------------------------|


   S  S  S  S  S  S  E   E   E   Q        Q     H.             
---------------------------------------|---------------------||
---------------------------------------|---------------------||
---------------------------------------|---------------------||
--14-12-------------14---L--12--14~----|--x\-----------------||
--------14-13-12-11-----11-------L-----|--x\-----------------||
---------------------------------------|---------------------||




_____________________________________________________________________________
*****************************************************************************
_____________________________________________________________________________





                                                                     


                                                                  
Rhythm Guitar



     H        E   E   E  E        Q       E.  S    E  E   E    E   
E||-------------------------|-------------------------------------|
B||-------------------------|-------------------------------------|
G||-------------------------|-----------------9-------------------|
D||-------------------------|-----9-------9---L----9-----------7--|
A||----------------------9--|--9g11----9g11---L-9g11--9------7g9--|
E||--------------/9--12-----|----------------------------12-------|


  E   E  Q    E  S  S E  E     Q    E.  S E  Q    E   
----------------------------|------------------------|
----------------------------|------------------------|
----------------------------|------------------------|
--L------7-------7----7-----|--7----7---7-7--8----9--|
--L------7----7--7h-9-7-----|--5----5---5-5--6----7--|
-----10------------------0--|------------------------|


  E  S  S S S S S S   S E   S  S  E        Q       E.  S    E  E   E    E   
-------------------------------------|-------------------------------------|
-------------------------------------|-------------------------------------|
-------------------------------------|-----------------9-------------------|
--L---------------------9------------|-----9-------9---L----9-----------7--|
--L-------7-7---7-9s-11----11p-9-----|--9g11----9g11---L-9g11--9------7g9--|
-----7h-9-----9------------------12--|----------------------------12-------|


  E   E  Q    E  S  S E  E     Q    E.  S E  Q    E   
----------------------------|------------------------|
----------------------------|------------------------|
----------------------------|------------------------|
--L------7-------7----7-----|--7----7---7-7--8----9--|
--L------7----7--7h-9-7-----|--5----5---5-5--6----7--|
-----10------------------0--|------------------------|


  E  S  S S S S S S   S E   S  S  E        Q       E.  S    E  E   E    E   
-------------------------------------|-------------------------------------|
-------------------------------------|-------------------------------------|
-------------------------------------|-----------------9-------------------|
--L---------------------9------------|-----9-------9---L----9-----------7--|
--L-------7-7---7-9s-11----11p-9-----|--9g11----9g11---L-9g11--9------7g9--|
-----7h-9-----9------------------12--|----------------------------12-------|


  E   E  Q    E  S  S E  E     Q    E.  S E  Q    E   
----------------------------|------------------------|
----------------------------|------------------------|
----------------------------|------------------------|
--L------7-------7----7-----|--7----7---7-7--8----9--|
--L------7----7--7h-9-7-----|--5----5---5-5--6----7--|
-----10------------------0--|------------------------|


  E  S  S S S S S S   S E   S  S  E      E   E   Q     E   E   E   E   
-------------------------------------|--------------------------------|
-------------------------------------|--10s--9--10-----x--10---x--10--|
-------------------------------------|---9s--8---9-----x---9---x---9--|
--L---------------------9------------|---8s--7---8-----x---8---x---8--|
--L-------7-7---7-9s-11----11p-9-----|---9s--8---9-----x---9---x---9--|
-----7h-9-----9------------------12--|--------------------------------|


   E   E   Q     Q     Q        E   E   Q     E   E   E   E   
----------------------------|--------------------------------|
--10s--9--10-----x-----x----|--10s--9--10-----x--10---x--10--|
---9s--8---9-----x-----x----|---9s--8---9-----x---9---x---9--|
---8s--7---8-----x-----x----|---8s--7---8-----x---8---x---8--|
---9s--8---9-----x-----x----|---9s--8---9-----x---9---x---9--|
----------------------------|--------------------------------|


   E   E   Q     Q     Q        E   E   Q     E   E   E   E   
----------------------------|--------------------------------|
--10s--9--10-----x-----x----|--10s--9--10-----x--10---x--10--|
---9s--8---9-----x-----x----|---9s--8---9-----x---9---x---9--|
---8s--7---8-----x-----x----|---8s--7---8-----x---8---x---8--|
---9s--8---9-----x-----x----|---9s--8---9-----x---9---x---9--|
----------------------------|--------------------------------|


   E   E   Q     Q     Q        E   E   Q     E   E   E   E   
----------------------------|--------------------------------|
--10s--9--10-----x-----x----|--10s--9--10-----x--10---x--10--|
---9s--8---9-----x-----x----|---9s--8---9-----x---9---x---9--|
---8s--7---8-----x-----x----|---8s--7---8-----x---8---x---8--|
---9s--8---9-----x-----x----|---9s--8---9-----x---9---x---9--|
----------------------------|--------------------------------|


   E   E   Q     Q     Q                                                     
----------------------------|-------|-------|-------|-------|-------|-------|
--10s--9--10-----x-----x----|-------|-------|-------|-------|-------|-------|
---9s--8---9-----x-----x----|-------|-------|-------|-------|-------|-------|
---8s--7---8-----x-----x----|-------|-------|-------|-------|-------|-------|
---9s--8---9-----x-----x----|-------|-------|-------|-------|-------|-------|
----------------------------|-------|-------|-------|-------|-------|-------|


                     Q       E.  S    E  E   E    E   
-------|-------|-------------------------------------|
-------|-------|-------------------------------------|
-------|-------|-----------------9-------------------|
-------|-------|-----9-------9---L----9-----------7--|
-------|-------|--9g11----9g11---L-9g11--9------7g9--|
-------|-------|----------------------------12-------|


  E   E  Q    E  S  S E  E     Q    E.  S E  Q    E   
----------------------------|------------------------|
----------------------------|------------------------|
----------------------------|------------------------|
--L------7-------7----7-----|--7----7---7-7--8----9--|
--L------7----7--7h-9-7-----|--5----5---5-5--6----7--|
-----10------------------0--|------------------------|


  E  S  S S S S S S   S E   S  S  E        Q       E.  S    E  E   E    E   
-------------------------------------|-------------------------------------|
-------------------------------------|-------------------------------------|
-------------------------------------|-----------------9-------------------|
--L---------------------9------------|-----9-------9---L----9-----------7--|
--L-------7-7---7-9s-11----11p-9-----|--9g11----9g11---L-9g11--9------7g9--|
-----7h-9-----9------------------12--|----------------------------12-------|


  E   E  Q    E  S  S E  E     Q    E.  S E  Q    E   
----------------------------|------------------------|
----------------------------|------------------------|
----------------------------|------------------------|
--L------7-------7----7-----|--7----7---7-7--8----9--|
--L------7----7--7h-9-7-----|--5----5---5-5--6----7--|
-----10------------------0--|------------------------|


  E  S  S S S S S S   S E   S  S  E      E   E   Q     E   E   E   E   
-------------------------------------|--------------------------------|
-------------------------------------|--10s--9--10-----x--10---x--10--|
-------------------------------------|---9s--8---9-----x---9---x---9--|
--L---------------------9------------|---8s--7---8-----x---8---x---8--|
--L-------7-7---7-9s-11----11p-9-----|---9s--8---9-----x---9---x---9--|
-----7h-9-----9------------------12--|--------------------------------|


   E   E   Q     Q     Q        E   E   Q     E   E   E   E   
----------------------------|--------------------------------|
--10s--9--10-----x-----x----|--10s--9--10-----x--10---x--10--|
---9s--8---9-----x-----x----|---9s--8---9-----x---9---x---9--|
---8s--7---8-----x-----x----|---8s--7---8-----x---8---x---8--|
---9s--8---9-----x-----x----|---9s--8---9-----x---9---x---9--|
----------------------------|--------------------------------|


   E   E   Q     Q     Q        E   E   Q     E   E   E   E   
----------------------------|--------------------------------|
--10s--9--10-----x-----x----|--10s--9--10-----x--10---x--10--|
---9s--8---9-----x-----x----|---9s--8---9-----x---9---x---9--|
---8s--7---8-----x-----x----|---8s--7---8-----x---8---x---8--|
---9s--8---9-----x-----x----|---9s--8---9-----x---9---x---9--|
----------------------------|--------------------------------|


   E   E   Q     Q     Q        E   E   Q     E   E   E   E   
----------------------------|--------------------------------|
--10s--9--10-----x-----x----|--10s--9--10-----x--10---x--10--|
---9s--8---9-----x-----x----|---9s--8---9-----x---9---x---9--|
---8s--7---8-----x-----x----|---8s--7---8-----x---8---x---8--|
---9s--8---9-----x-----x----|---9s--8---9-----x---9---x---9--|
----------------------------|--------------------------------|


   E   E   Q     Q     Q                                                     
----------------------------|-------|-------|-------|-------|-------|-------|
--10s--9--10-----x-----x----|-------|-------|-------|-------|-------|-------|
---9s--8---9-----x-----x----|-------|-------|-------|-------|-------|-------|
---8s--7---8-----x-----x----|-------|-------|-------|-------|-------|-------|
---9s--8---9-----x-----x----|-------|-------|-------|-------|-------|-------|
----------------------------|-------|-------|-------|-------|-------|-------|


                     Q       E.  S    E  E   E    E   
-------|-------|-------------------------------------|
-------|-------|-------------------------------------|
-------|-------|-----------------9-------------------|
-------|-------|-----9-------9---L----9-----------7--|
-------|-------|--9g11----9g11---L-9g11--9------7g9--|
-------|-------|----------------------------12-------|


  E   E  Q    E  S  S E  E     Q    E.  S E  Q    E   
----------------------------|------------------------|
----------------------------|------------------------|
----------------------------|------------------------|
--L------7-------7----7-----|--7----7---7-7--8----9--|
--L------7----7--7h-9-7-----|--5----5---5-5--6----7--|
-----10------------------0--|------------------------|


  E  S  S S S S S S   S E   S  S  E        Q       E.  S    E  E   E    E   
-------------------------------------|-------------------------------------|
-------------------------------------|-------------------------------------|
-------------------------------------|-----------------9-------------------|
--L---------------------9------------|-----9-------9---L----9-----------7--|
--L-------7-7---7-9s-11----11p-9-----|--9g11----9g11---L-9g11--9------7g9--|
-----7h-9-----9------------------12--|----------------------------12-------|


  E   E  Q    E  S  S E  E     Q    E.  S E  Q    E   
----------------------------|------------------------|
----------------------------|------------------------|
----------------------------|------------------------|
--L------7-------7----7-----|--7----7---7-7--8----9--|
--L------7----7--7h-9-7-----|--5----5---5-5--6----7--|
-----10------------------0--|------------------------|


  E  S  S S S S S S   S E   S  S  E     Q    E  E  E  E  Q     
-------------------------------------|------------------------|
-------------------------------------|----------0--L----------|
-------------------------------------|-------2--------2--L----|
--L---------------------9------------|------------------------|
--L-------7-7---7-9s-11----11p-9-----|--4---------------------|
-----7h-9-----9------------------12--|------------------------|


  E  E  E  E  E  E  E  E     Q    E  E  E  E  E  E     E  E  E  E  E  E  Q     
--------------------------|-------------------------|-------------------------|
-----------0--L-----------|----------0--L-----------|-----------0--L----------|
-----2-----------2-----2--|-------2--------2--L-----|-----2-----------2-------|
--------------------------|-------------------------|-------------------------|
--4-----4-----------4-----|--5-------------------5--|--L-----5-----------5----|
--------------------------|-------------------------|-------------------------|


  Q    E  E  E  E  E  E     E  E  E  E  E  E  Q       Q    E  E  E  E  E  E   
-------------------------|-------------------------|-------------------------|
----------0--L-----------|-----------0--L----------|----------2--L-----------|
-------------------------|-------------------------|-------------------------|
-------2--------2--L-----|-----2-----------2-------|-------2--------2--L-----|
--0-------------------0--|--L-----0-----------0----|--4-------------------4--|
-------------------------|-------------------------|-------------------------|


  E  E  E  E  E  E  Q       Q    E  E  E  E  Q       E  E  E  E  E  E  E  E   
-------------------------|------------------------|--------------------------|
-----------2--L----------|----------0--L----------|-----------0--L-----------|
-------------------------|-------2--------2--L----|-----2-----------2-----2--|
-----2-----------2--L----|------------------------|--------------------------|
--L-----4----------------|--4---------------------|--4-----4-----------4-----|
-------------------------|------------------------|--------------------------|


  Q    E  E  E  E  E  E     E  E  E  E  E  E  Q       Q    E  E  E  E  E  E   
-------------------------|-------------------------|-------------------------|
----------0--L-----------|-----------0--L----------|----------0--L-----------|
-------2--------2--L-----|-----2-----------2-------|-------------------------|
-------------------------|-------------------------|-------2--------2--L-----|
--5-------------------5--|--L-----5-----------5----|--0-------------------0--|
-------------------------|-------------------------|-------------------------|


  E  E  E  E  E  E  Q       E  E  E  E  E  E  E  E     Q    H        Q     
-------------------------|--------------------------|---------------------|
-----------0--L----------|--------------------------|---------------------|
-------------------------|--2--2--2--2--2--2--2--2--|--2------------------|
-----2-----------2-------|--1--1--1--1--1--1--1--1--|--1------------------|
--L-----0-----------0----|--2--2--2--2--2--2--2--2--|--2------------------|
-------------------------|--------------------------|---------------------|


-------|-------|-------|-------|-------|-------|-------|-------|-------|-------|
-------|-------|-------|-------|-------|-------|-------|-------|-------|-------|
-------|-------|-------|-------|-------|-------|-------|-------|-------|-------|
-------|-------|-------|-------|-------|-------|-------|-------|-------|-------|
-------|-------|-------|-------|-------|-------|-------|-------|-------|-------|
-------|-------|-------|-------|-------|-------|-------|-------|-------|-------|


                                                  E  E  E  Q    Q    E   
-------|-------|-------|-------|-------|-------|------------------------|
-------|-------|-------|-------|-------|-------|-----------2------------|
-------|-------|-------|-------|-------|-------|--------4-------4-------|
-------|-------|-------|-------|-------|-------|-----3---------------3--|
-------|-------|-------|-------|-------|-------|--4---------------------|
-------|-------|-------|-------|-------|-------|------------------------|


  E  E  Q    E  Q    E     Q    Q    H           Q.     E  E  E  Q     
------------------------|---------------------|---------0-------------|
-----2-------2----------|--2------------------|------------2-----2----|
--------4-------4----L--|-------4-------------|---------------4-------|
--L---------------------|------------3--------|--L--------------------|
------------------------|---------------------|-----------------------|
------------------------|---------------------|-----------------------|


  E  E  E  Q    Q    E     E  E  Q    E  Q    E     Q    Q    H         
------------------------|------------------------|---------------------|
-----------2------------|-----2-------2----------|--2------------------|
--------4-------4-------|--------4-------4----L--|-------4-------------|
-----3---------------3--|--L---------------------|------------3--------|
--4---------------------|------------------------|---------------------|
------------------------|------------------------|---------------------|


  Q.     E  E  E  Q        E   E   Q     E   E   E   E   
---------0-------------|--------------------------------|
------------2-----2----|--10s--9--10-----x--10---x--10--|
---------------4-------|---9s--8---9-----x---9---x---9--|
--L--------------------|---8s--7---8-----x---8---x---8--|
-----------------------|---9s--8---9-----x---9---x---9--|
-----------------------|--------------------------------|


   E   E   Q     Q     Q        E   E   Q     E   E   E   E   
----------------------------|--------------------------------|
--10s--9--10-----x-----x----|--10s--9--10-----x--10---x--10--|
---9s--8---9-----x-----x----|---9s--8---9-----x---9---x---9--|
---8s--7---8-----x-----x----|---8s--7---8-----x---8---x---8--|
---9s--8---9-----x-----x----|---9s--8---9-----x---9---x---9--|
----------------------------|--------------------------------|


   E   E   Q     Q     Q        E   E   Q     E   E   E   E   
----------------------------|--------------------------------|
--10s--9--10-----x-----x----|--10s--9--10-----x--10---x--10--|
---9s--8---9-----x-----x----|---9s--8---9-----x---9---x---9--|
---8s--7---8-----x-----x----|---8s--7---8-----x---8---x---8--|
---9s--8---9-----x-----x----|---9s--8---9-----x---9---x---9--|
----------------------------|--------------------------------|


   E   E   Q     Q     Q        E   E   Q     E   E   E   E   
----------------------------|--------------------------------|
--10s--9--10-----x-----x----|--10s--9--10-----x--10---x--10--|
---9s--8---9-----x-----x----|---9s--8---9-----x---9---x---9--|
---8s--7---8-----x-----x----|---8s--7---8-----x---8---x---8--|
---9s--8---9-----x-----x----|---9s--8---9-----x---9---x---9--|
----------------------------|--------------------------------|


   E   E   Q     Q     Q        E   E   Q     E   E   E   E   
----------------------------|--------------------------------|
--10s--9--10-----x-----x----|--10s--9--10-----x--10---x--10--|
---9s--8---9-----x-----x----|---9s--8---9-----x---9---x---9--|
---8s--7---8-----x-----x----|---8s--7---8-----x---8---x---8--|
---9s--8---9-----x-----x----|---9s--8---9-----x---9---x---9--|
----------------------------|--------------------------------|


   E   E   Q     Q     Q        E   E   Q     E   E   E   E   
----------------------------|--------------------------------|
--10s--9--10-----x-----x----|--10s--9--10-----x--10---x--10--|
---9s--8---9-----x-----x----|---9s--8---9-----x---9---x---9--|
---8s--7---8-----x-----x----|---8s--7---8-----x---8---x---8--|
---9s--8---9-----x-----x----|---9s--8---9-----x---9---x---9--|
----------------------------|--------------------------------|


   E   E   Q     Q     Q        E   E   Q     E   E   E   E   
----------------------------|--------------------------------|
--10s--9--10-----x-----x----|--10s--9--10-----x--10---x--10--|
---9s--8---9-----x-----x----|---9s--8---9-----x---9---x---9--|
---8s--7---8-----x-----x----|---8s--7---8-----x---8---x---8--|
---9s--8---9-----x-----x----|---9s--8---9-----x---9---x---9--|
----------------------------|--------------------------------|


   E   E   Q     Q     Q        E   E   Q     E   E   E   E   
----------------------------|--------------------------------|
--10s--9--10-----x-----x----|--10s--9--10-----x--10---x--10--|
---9s--8---9-----x-----x----|---9s--8---9-----x---9---x---9--|
---8s--7---8-----x-----x----|---8s--7---8-----x---8---x---8--|
---9s--8---9-----x-----x----|---9s--8---9-----x---9---x---9--|
----------------------------|--------------------------------|


   E   E   Q     Q     Q                              
----------------------------|-------|-------|-------||
--10s--9--10-----x-----x----|-------|-------|-------||
---9s--8---9-----x-----x----|-------|-------|-------||
---8s--7---8-----x-----x----|-------|-------|-------||
---9s--8---9-----x-----x----|-------|-------|-------||
----------------------------|-------|-------|-------||




Duration Legend
---------------
W - whole
H - half
Q - quarter
E - 8th
S - 16th
T - 32nd
X - 64th
. - note dotted
|-n-|  - n-tuplets


Tablature Legend
----------------
L - tied note
x - dead note
g - grace note
(n) - ghost note
> - accentuded note
NH - natural harmonic
AH - artificial harmonic
TH - tapped harmonic
SH - semi harmonic
PH - pitch harmonic
h - hammer on
p - pull off
b - bend
br - bendRelease
pb - preBend
pbr - preBendRelease
brb - bendReleaseBend
\n/ - tremolo bar dip
\n - tremolo bar dive
-/n - tremolo bar Release up
/n\ - tremolo bar inverted dip
/n - tremolo bar return
-\n - tremolo bar Release down
S - shift slide
s - legato slide
/ -  slide into from below or out of upwards
\ -  slide into from above or out of downwards
~ - vibrato
W - wide vibrato
tr - trill
TP - tremolo picking
T - tapping
S - slap
P - pop
< - fade in
^ - brush up
v - brush down

****Special thanks to (o-toole@shaw.ca) for making the source gp file*****
Tap to rate this tab
# A B C D E F G H I J K L M N O P Q R S T U V W X Y Z