Song name
# A B C D E F G H I J K L M N O P Q R S T U V W X Y Z

Brian Lebarton - Desert Slaying tab

WET Soundtrack - Desert Slaying by Brian LeBarton

http://brianlebarton.com/

(The E is tuned to C#)

Listen to the song for the rhythm

e  -----------------------------------------------------------------|
B  -----------------------------------------------------------------|
G  -----------------------------------------------------------------|
D  -------7-6-----5-4-----7-6------10-9-----------------------------|
A  -----------------------------------------------------------------|
C# --00-------00-------00------00-----------------------------------|

e  -----------------------------------------------------------------|
B  -----------------------------------------------------------------|
G  -9--6----9--6-----9--6-------------------------------------------|
D  -9--6----9--6-----9--6------9-9-8-8-7-7-6-6----------------------|
A  -7--4----7--4-----7--4-------------------------------------------|
C# -0--0----0--0-----0--0-------------------------------------------|

e  -----------------------------------------------------------------|
B  -----------------------------------------------------------------|
G  --6--10--9---6--10---9-------------------------------------------|
D  --6--10--9---6--10---9-------------------------------------------|
A  --4--8---7---4--8----7-------------------------------------------|
C# --0--0---0---0--0----0-------------------------------------------|
Tap to rate this tab
# A B C D E F G H I J K L M N O P Q R S T U V W X Y Z