Song name
# A B C D E F G H I J K L M N O P Q R S T U V W X Y Z

Brian May - Resurrection tab

Help us improve GuitareTab! Take a short survey!
This isnt anywhere on the internet so i figured it out enjoy:

E---------------------------------------------|--------------------------|
B---------------------------------------------|----------15---17--17b 17b|
G-16v--14--14v-------14----16--16b18rb16--16v-|--14h16-------------------|
D---------------16----------------------------|--------------------------|
A---------------------------------------------|--------------------------|
E---------------------------------------------|--------------------------|


E------------------------------------------------------------------------|
B17rb 15 17brb--17v--17brb--15-------------------------------------------|
G-------------------------------16v--------------------------------------|
D------------------------------------------------------------------------|
A------------------------------------------------------------------------|
E------------------------------------------------------------------------|


It varies a bit from that but just fiddle around with the scale and youll get it.

Any suggestions email me at we_will_rock_you0@hotmail.com
Related for Resurrection tab