Guitaretab - guitar tabs
Song name
# A B C D E F G H I J K L M N O P Q R S T U V W X Y Z

Brian May - Last Horizon tab

-------------------------------------------------------------------------------
			     LAST HORIZON Ė Brian May
-------------------------------------------------------------------------------
Tabbed by: Junkyard Stalker
Email: junkyardstalker@hotmail.com

Tuning: Standard


My first tab. Warning: may be very inaccurate.

First measure

e|--------------------------------------------------------------------------------|
B|----12fb(14)r-------------------------------------------------------------------|
G|-9----------------13hb(14)r---11fb(13)rb(13)r(11)ó9h11-9--8-11-9--9-11fb(13)-11-|
D|--------------------------------------------------------------------------------|
A|--------------14----------------------------------------------------------------|
E|--------------------------------------------------------------------------------|

e|---------------------------------------------------------12-9-------------------|
B|---------------12fb(14)r--------------------------------------------------------|
G|-11-9-11----9----------------13hb(14)r---11fb(13)r(11)-9------13-11fb(13)r(11)--|
D|--------------------------------------------------------------------------------|
A|-------------------------14-----------------------------------------------------|
E|--------------------------------------------------------------------------------|

e|--------------------------------------------------------------------------------|
B|----------------------------------------------------------------12/14--14-14----|
G|-9-9-11---11fb(13)r(11)-9---9-11fb(13)-(13)-(13)r(11)-9-11----9-----------------|
D|--------------------------------------------------------------------------------|
A|--------------------------------------------------------------------------------|
E|--------------------------------------------------------------------------------|

e|--------------------------------------------------------------------------------|
B|-16-16hb(17)-(17)---14-12-------------------------------------------------------|
G|--------------------------11fb(13)-9-11--------9-11fb(13)-(13)-(13)r(11)-p9-----|
D|----------------------------------------9/11------------------------------------|
A|--------------------------------------------------------------------------------|
E|--------------------------------------------------------------------------------|

e|--------------------------------------------------------------------------------|
B|----------------------12fb(14)r-------------------------------------------------|
G|-11--13--13b(1/4)-14-------------13hb(14)r---11fb(13)r(11)--9h11-9--8-11-9------|
D|--------------------------------------------------------------------------------|
A|--------------------------------------------------------------------------------|
E|--------------------------------------------------------------------------------|

e|--------------------------------------------------------------------------------|
B|--------------------------------------------------------------------------------|
G|-11fb(13)-11-11-9-11---9-9------------------------------------------------------|
D|---------------------9----------------------------------------------------------|
A|--------------------------------------------------------------------------------|
E|--------------------------------------------------------------------------------|

Second measure

e|--------------------------------------------------------------------------------|
B|-12fb(14)r----------------------------------------------------------------------|
G|------------13hb(14)r--11-11-9-9--8-11-9-9--9-11fb(13)-11-11p9-11---------------|
D|--------------------------------------------------------------------------------|
A|--------------------------------------------------------------------------------|
E|--------------------------------------------------------------------------------|

e|--------------------------------------------------------------------------------|
B|----12fb(14)r-------------------------------------------------------------------|
G|-9----------------13hb(14)r--11-11-9-9---8-11-9-9--9-11fb(13)-11-11-9-11--------|
D|--------------------------------------------------------------------------------|
A|---------------14---------------------------------------------------------------|
E|--------------------------------------------------------------------------------|

e|--------------------------------------------------------------------------------|
B|-----12fb(14)-(14)-(14)r(12)p10-12fb(14)---14-16-16hb(17)--14-14--14-16-17------|
G|-9-9----------------------------------------------------------------------------|
D|--------------------------------------------------------------------------------|
A|--------------------------------------------------------------------------------|
E|--------------------------------------------------------------------------------|

e|------------------------19fb(21)r-----16hb(17)r---14fb(16)-(16)r(14)------------|
B|-19fb(21)r(19)------------------------------------------------------------------|
G|--------------------16-------------16-------------------------------------------|
D|--------------------------------------------------------------------------------|
A|--------------------------------------------------------------------------------|
E|--------------------------------------------------------------------------------|

e|-14-14-12-12---11-14-12-12---12-14fb(16)-(16)-(16)-(16)r(14)-12-14--------------|
B|--------------------------------------------------------------------------------|
G|--------------------------------------------------------------------------------|
D|--------------------------------------------------------------------------------|
A|--------------------------------------------------------------------------------|
E|--------------------------------------------------------------------------------|
[ Tab from: http://www.guitaretab.com/b/brian-may/189662.html ]
e|-----19fb(21)r-fb-r-fb-r(19)---16-17-19-17-16-----------------------------------|
B|----------------------------------------------19-19fb(21)-----------------------|
G|-16-----------------------------------------------------------------------------|
D|--------------------------------------------------------------------------------|
A|--------------------------------------------------------------------------------|
E|--------------------------------------------------------------------------------|

e|--------------------------------------------------------------------------------|
B|-21-21-19-19-19-17-17---16-19-17-17--17-19fb(21)-19-19-17-17----19fb(21)r-17----|
G|-------------------------------------------------------------18-----------------|
D|--------------------------------------------------------------------------------|
A|--------------------------------------------------------------------------------|
E|--------------------------------------------------------------------------------|

Third Measure

I think this part is multi-tracked. Iím just tabbing the high notes because theyíre 
to hear... canít really pick out all the other notes...

e|-/11-----9-11-hb(12)r-9----9---12-14-14fb(16)----11-9-11-12-14fb(16)r(14)-12----|
B|------12----------------12---------------------------------------------------14-|
G|--------------------------------------------------------------------------------|
D|--------------------------------------------------------------------------------|
A|--------------------------------------------------------------------------------|
E|--------------------------------------------------------------------------------|

The fast bit... Not accurate at all, but itís the best I can do. Lots of guess 
work and imagination.

e|--------------------------------------------------------------------------------|
B|----------------------9-10-12-10p9h10p9-----------------------------------------|
G|---11-9h11p9-8-8-9-11-------------------11-9hb10r------9hb10r-------------------|
D|-9------------------------------------------------12-9--------12-9--------------|
A|-------------------------------------------------------------------12-9\7fb(9)r-|
E|--------------------------------------------------------------------------------|

e|--------------------------------------------------------------------------------|
B|--------------------------------------------------------------------------------|
G|--------------------------------------------------------------------------------|
D|--------------------------------------------------------------------------------|
A|-5---7fb(9)r-5------------------------------------------------------------------|
E|---7-----------7-5--------------------------------------------------------------|

Forth measure

e|--------------------------------------------------------------------------------|
B|-15fb(17)r----------------------------------------------------------------------|
G|------------14fb(16)r(14)-12-14fb(16)ó(16)r(14)-12----14fb(16)r(14)-12-14----12-|
D|--------------------------------------------------------------------------14----|
A|--------------------------------------------------------------------------------|
E|--------------------------------------------------------------------------------|

e|--------------------------------------------------------------------------------|
B|----------------------------------------------15fb(17)-(17)-(17)r(15)-----------|
G|-12-14fb(16)r(14)-12---11-12-14fb(16)r(14)-12-----------------------------------|
D|--------------------------------------------------------------------------------|
A|--------------------------------------------------------------------------------|
E|--------------------------------------------------------------------------------|

e|--------------------------------------------------------------------------------|
B|-15fb(17)r(15)-13-fb(15)r(13)-12-------------------12---------------------------|
G|---------------------------------14-12-------11-12----14-12---------------------|
D|------------------------------------------12------------------------------------|
A|--------------------------------------------------------------------------------|
E|--------------------------------------------------------------------------------|

e|--------------------------------------------------------------------------------|
B|----------15fb(17)-r(15)-13-12--------------------------------------------------|
G|-14fb(16)----------------------14-14fb(16)-12-------12-14------14-12------------|
D|----------------------------------------------14----------12---------10---------|
A|--------------------------------------------------------------------------------|
E|--------------------------------------------------------------------------------|

e|-------------------------15-14-12-----------------------------------------------|
B|----------------------------------15-13-12--------------------------------------|
G|-9-9-12-12fb(14)r(12)----------------------14-12-14fb(16)r(14)-12---------------|
D|--------------------------------------------------------------------------------|
A|--------------------------------------------------------------------------------|
E|--------------------------------------------------------------------------------|

E|-15/17--17/19-----------------------------------------15-15-15------------------|
B|--------------------15-17----15-17----15-17----15-17----------------------------|
G|--------------17----------17-------17-------17----------------------------------|
D|--------------------------------------------------------------------------------|
A|--------------------------------------------------------------------------------|
E|--------------------------------------------------------------------------------|

e|----22fb(24)r------22fb(24)r----------------------------------------------------|
B|--------------------------------------------------------------------------------|
G|-19-------------19--------------------------------------------------------------|
D|--------------------------------------------------------------------------------|
A|--------------------------------------------------------------------------------|
E|--------------------------------------------------------------------------------|

Hereís my Last Horizon tab. Feel free to modify and add embellishments as you wish.

| /  slide up
| \  slide down
| h  hammer-on
| p  pull-off
| ~  vibrato
| +  harmonic
| x  Mute note
===============================================================================
Related for Last Horizon tab