Song name
# A B C D E F G H I J K L M N O P Q R S T U V W X Y Z

Brian Mcfadden - Like Only A Woman Can tab

Below you will find 2 tabs for Brian McFadden's 'Like Only A Woman Can':
TUNING: Standard

1. for the Intro

E---------------------------------------------------------------------|
B------------------------------6/8--11--8--6--4--6--4--4--11----------|
G-----7h8p7-----------------------------------------------------------|
D-----------8h10--5---------------------------------------------------|
A---------------------------------------------------------------------|
E---------------------------------------------------------------------|

2. For the solo
E-------------------------|
B---8h9p8--9--8--6-8~-----|
G-------------------------|
D-------------------------|
A-------------------------|
E-------------------------|

E-------------------------|
B---8h9p8--9--8--6-8--4~--|
G-------------------------|
D-------------------------|
A-------------------------|
E-------------------------|

E-------------------------|
B---8h9p8--9--8--6-8/4~---|
G-------------------------|
D-------------------------|
A-------------------------|
E-------------------------|

Please rate, suggest and comment
Tap to rate this tab
# A B C D E F G H I J K L M N O P Q R S T U V W X Y Z