Song name
# A B C D E F G H I J K L M N O P Q R S T U V W X Y Z

Brian Mcknight - Back At One tab

Tab by mustanggtm18
Standard Tuning
Solo Starts About 2:15 Into The Song
Tone: metal tone with a lot of chorus
Guitar Cover at http://www.youtube.com/mustanggtm0413

e---------------------------------------------------------------------------|
B---------------------------------------------------------------------------|
G-11b--11--11-11-10-9---------------8---------------------------------------|
D--------------------11-9-9--9-9-11---11-9-11-------------------------------|
A---------------------------------------------11----------------------------|
E---------------------------------------------------------------------------|

e---------------------------------------------------------------------------|
B---------------------------------------------------------------------------|
G---11-11-9-----------11b13---8-9-11-9--------------------------------------|
D-9---------11-9-9--9-------------------------------------------------------|
A---------------------------------------------------------------------------|
E---------------------------------------------------------------------------|

e---------------------------------------------------------------------------|
B---------------------------------------------------------------------------|
G-11-11h13-11-13-11-13-11-13--9-11-13-13b15---13-11-9-9p8-------------------|
D--------------------------------------------------------11p9---------------|
A---------------------------------------------------------------------------|
E---------------------------------------------------------------------------|

e---------------------------------------------------22b23-22b24-22b23--20---|
B---------------------------------------------------------------------------|
G---11b13-11b13--11-11-9-11--9-11--11-11--11-12-----------------------------|
D-9-------------------------------------------------------------------------|
A---------------------------------------------------------------------------|
E---------------------------------------------------------------------------|
Tap to rate this tab
 
# A B C D E F G H I J K L M N O P Q R S T U V W X Y Z