Song name
# A B C D E F G H I J K L M N O P Q R S T U V W X Y Z

Brian Setzer Orchestra - Drive Like Lightning tab

-------------------------------------------------------------------------------
Brian Setzer Orchestra-Drive Like Lightning
-------------------------------------------------------------------------------

Intro:                   .25
e|---------------------------------------------------------------------------|
B|----5-8-5-------------------------5-8-5------------------------------------|
G|-9--------7-----------------------------7-------------7--------------------|
D|-9----------9-8-7-5---7-5b----------------9-8-7-5---7-5--------------------|
A|-7------------------7-------7---------------------7------------------------|
E|---------------------------------------------------------------------------|


                        .25
e|---------------------------------------------------------------------------|
B|--5-8-5-----------------------5-8-5----------------------------------------|
G|--------7---------------------------7--------------7-----------------------|
D|----------9-8-7-5----7-5b--------------9-8-7-5---7-5-----------------------|
A|-------------------7-------7-------------------7---------------------------|
E|---------------------------------------------------------------------------|
Tap to rate this tab
# A B C D E F G H I J K L M N O P Q R S T U V W X Y Z