Guitaretab - guitar tabs
Song name
# A B C D E F G H I J K L M N O P Q R S T U V W X Y Z

Brian Setzer Orchestra - The Dirty Boogie tab

-------------------------------------------------------------------------------
			     The Dirty Boogie  Brian Setzer Orchestra
-------------------------------------------------------------------------------
Tabbed by: larsonhoopes11	
Email:  danlarson4700@comcast.net

Tuning: Standard

e|---------------------------------------------------------------------------|
B|---------------------------------------------------------------------------|
G|-3p0-0-5p0-0-6p0-0-5p0-0-3p0-0-5p0-0-6p0-0-5p0-0-3p0-0-0-0-----------------|
D|-----------------------------------------------------------3-0-3-0---------|
A|---------------------------------------------------------------------0h1---|
E|------------------------------------------------------------------------3--|
[ Tab from: http://www.guitaretab.com/b/brian-setzer-orchestra/183448.html ]
e|-------------------8-9-11-11b13---/11-11----/6-6---------------------------|
B|--------6h7h8h9-11----------------------12------8--/3-3--------------------|
G|-------6-----------------------------------------------32/3-3-------------|
D|----5h8--------------------------------------------------------5-----------|
A|-5h6-----------------------------------------------------------------------|
E|---------------------------------------------------------------------------|

e|-----------------------------------3----3----3---3---3---------------------|
B|-------------------------6----4h5b6-6b8 6b8-6b86b8-6b8-3----------------|
G|-------4-5-4----------5h7--7--------------------------------5-5/7----------|
D|----4h7------7-6-5-4-------------------------------------------------------|
A|-4h5-----------------------------------------------------------------------|
E|---------------------------------------------------------------------------|



| /  slide up
| \  slide down
| h  hammer-on
| p  pull-off
| ~  vibrato
| +  harmonic
| x  Mute note
===============================================================================

Related for The Dirty Boogie tab