Brian Setzer Orchestra - Hawaii Five-o tab

Hawaii five 0                                   
Brian Setzer Orchestra


     Q    E  E  E  E  E  E     E  Q    E  Q    Q       Q    E  E  E  E  E  E   
E||-------------------------|-----------------------|-------------------------|
B||----------------3--L-----|-----------------------|-------------------------|
G||-------------3--------5--|--L--L-----------------|----------------3--L-----|
D||-------5--5--------------|----------5--L----L----|-------5--5--3--------5--|
A||-------------------------|-----------------------|-------------------------|
E||-------------------------|-----------------------|-------------------------|


  W                   Q    E  E  E  E  E  E     E  Q    E  H         
-------------------|-------------------------|----------3--L--------|
-------------------|----------------3--L-----|----------------------|
-------------------|-------------3--------5--|--L--L----------------|
--L----------------|-------5--5--------------|----------------------|
-------------------|-------------------------|----------------------|
-------------------|-------------------------|----------------------|


  Q    E  E  E  E  E  E     W                                     
----------------------3--|--L----------------|-------------------|
-------6--6--3-----------|-------------------|-------------------|
----------------3--L-----|-------------------|-------------------|
-------------------------|-------------------|-------------------|
-------------------------|-------------------|-------------------|
-------------------------|-------------------|-------------------|


  Q     Q    E  E  E  E     E  E  E  E  H           Q     Q    E  E  E  E   
-------/6----3-----------|-----------------------|-------/8----5-----------|
----------------6--4-----|-----------------------|----------------8--6-----|
----------------------5--|-----------------------|----------------------7--|
-------------------------|--5--3-----------------|-------------------------|
-------------------------|--------6--3--L--------|-------------------------|
-------------------------|-----------------------|-------------------------|


  E  E  E  E  E  E  E  E     E  Q    E  H           Q    E  E  E  E  E  E   
--------------------------|----------3--L--------|-------------------------|
--------------------3-----|----------------------|-------6--6--3-----------|
--5--3-----3--L--5-----5--|--L--L----------------|----------------3--L--5--|
--------6-----------------|----------------------|-------------------------|
--------------------------|----------------------|-------------------------|
--------------------------|----------------------|-------------------------|


  H        E  E  Q       W                   Q    E  E  E  E  E  E   
----------------------|-------------------|-------------------------|
----------------------|-------------------|----------------4--L-----|
--L--------5--5-------|-------------------|-------------4--------6--|
-----------------6----|--L----------------|-------6--6--------------|
----------------------|-------------------|-------------------------|
----------------------|-------------------|-------------------------|


  E  Q    E  Q    Q       Q    E  E  E  E  E  E     W                 
-----------------------|-------------------------|-------------------|
-----------------------|-------------------------|-------------------|
--L--L-----------------|----------------4--L-----|-------------------|
----------6--L----L----|-------6--6--4--------6--|--L----------------|
-----------------------|-------------------------|-------------------|
-----------------------|-------------------------|-------------------|


  Q    E  E  E  E  E  E     E  Q    E  H           Q    E  E  E  E  E  E   
-------------------------|----------4--L--------|----------------------4--|
----------------4--L-----|----------------------|-------7--7--4-----------|
-------------4--------6--|--L--L----------------|----------------4--L-----|
-------6--6--------------|----------------------|-------------------------|
-------------------------|----------------------|-------------------------|
-------------------------|----------------------|-------------------------|


  W                                       Q    E  E  E  E  E  E   
--L----------------|-------------------|-------7--5--4-----------|
-------------------|-------------------|----------------7--5--4--|
-------------------|-------------------|-------------------------|
-------------------|-------------------|-------------------------|
-------------------|-------------------|-------------------------|
-------------------|-------------------|-------------------------|


  E  E  E  E  H           Q    E  E   E  E  E  E     E  E  E  E  E  E  E  E   
-----------------------|-------9--7---------------|--------------------------|
-----4-----------------|-------------10--8--------|-----------4--L-----------|
--6--------6--L--------|--------------------9--7--|--6--4--6--------6--4--6--|
--------6--------------|--------------------------|--------------------------|
-----------------------|--------------------------|--------------------------|
-----------------------|--------------------------|--------------------------|


  E  Q    E  H           Q    E  E  E  E  E  E     H        E  E  Q     
----------4--L--------|-------------------------|----------------------|
----------------------|-------7--7--4-----------|----------------------|
--L--L----------------|----------------4--L--6--|--L--------6--6-------|
----------------------|-------------------------|-----------------7----|
----------------------|-------------------------|----------------------|
----------------------|-------------------------|----------------------|


  W                   Q    E  E  E  E  E  E     E  Q    E  Q    Q     
-------------------|-------------------------|-----------------------|
-------------------|----------------5--L-----|-----------------------|
-------------------|-------------5--------7--|--L--L-----------------|
--L----------------|-------7--7--------------|----------7--L----L----|
-------------------|-------------------------|-----------------------|
-------------------|-------------------------|-----------------------|


  Q    E  E  E  E  E  E     W                   Q    E  E  E  E  E  E   
-------------------------|-------------------|-------------------------|
-------------------------|-------------------|----------------5--L-----|
----------------5--L-----|-------------------|-------------5--------7--|
-------7--7--5--------7--|--L----------------|-------7--7--------------|
-------------------------|-------------------|-------------------------|
-------------------------|-------------------|-------------------------|


  E  Q    E  H           Q    E  E  E  E  E  E     W                 
----------5--L--------|----------------------5--|--L----------------|
----------------------|-------8--8--5-----------|-------------------|
--L--L----------------|----------------5--L-----|-------------------|
----------------------|-------------------------|-------------------|
----------------------|-------------------------|-------------------|
----------------------|-------------------------|-------------------|


                      Q    Q    E  E  E  E     E  E  Q    H         
-------------------|-------5----------------|----------------------|
-------------------|------------8--6--5-----|--5-------------------|
-------------------|---------------------7--|--------7----L--------|
-------------------|------------------------|-----7----------------|
-------------------|------------------------|----------------------|
-------------------|------------------------|----------------------|


  Q      Q    E   E  E  E      E  E  Q    E  E  Q       Q    Q    H         
-------/10----8------------|-------------------------|-------5----L--------|
-----------------11--9--8--|-------------------------|---------------------|
---------------------------|--10--7--9----7--5--7----|--L------------------|
---------------------------|-------------------------|---------------------|
---------------------------|-------------------------|---------------------|
---------------------------|-------------------------|---------------------|


  Q    E  E  E  E  E  E     Q    Q    H           Q    E  E  E  E  Q      
-------------------------|---------------------|-------------------8s----|
-------8--8--5-----------|---------------------|-------8--8--5--8--------|
----------------5--L--7--|--L----L----L--------|-------------------------|
-------------------------|---------------------|-------------------------|
-------------------------|---------------------|-------------------------|
-------------------------|---------------------|-------------------------|


   Q     H        Q       W                   H.            Q     
--10-----L--------8----|--L----------------|----------------8----|
------------------8----|--L----------------|----------------8----|
------------------7----|--L----------------|----------------9----|
------------------6----|--L----------------|---------------10----|
------------------6----|--L----------------|---------------10----|
-----------------------|-------------------|----------------8----|


   W                                       W                 
--10----------------|-------------------|--5----------------|
--10----------------|-------------------|--6----------------|
--10----------------|-------------------|--7----------------|
--12----------------|-------------------|--7----------------|
--12----------------|-------------------|--5----------------|
--10----------------|-------------------|-------------------|


  Q    E  E  E  Q    E     Q    E  E   E  Q    E     Q    E  E   E   Q    E   
------------------------|-------------------------|--------------------------|
------------------------|-------------------------|-----------------10----8--|
----------------4-------|-----------------9----7--|--L----7--7--10-----------|
-------------5-------7--|--L----7--7--10----------|--------------------------|
-------5--5-------------|-------------------------|--------------------------|
------------------------|-------------------------|--------------------------|


  Q     E   E   E   Q     E      Q     E   E   E   Q     E   
-----------------------------|------------------------------|
--L--------------------------|------------------------------|
-----------------------------|--------------------12----10--|
-------------------12----10--|---L----10--10--13------------|
-------10--10--13------------|------------------------------|
-----------------------------|------------------------------|


   Q     E   E   E   Q     E      Q    Q    Q     Q       Q     H.             
------------------------------|--------6----------8----|-------10------------||
--------------------13----11--|---L----6----------8----|-------10------------||
---L----10--10--13------------|--------7----------9----|-------10------------||
------------------------------|--------8---------10----|-------12------------||
------------------------------|--------8---------10----|-------12------------||
------------------------------|--------6----------8----|-------10------------||




Duration Legend
---------------
W - whole
H - half
Q - quarter
E - 8th
S - 16th
T - 32nd
X - 64th
. - note dotted
|-n-|  - n-tuplets


Tablature Legend
----------------
L - tied note
x - dead note
g - grace note
(n) - ghost note
> - accentuded note
NH - natural harmonic
AH - artificial harmonic
TH - tapped harmonic
SH - semi harmonic
PH - pitch harmonic
h - hammer on
p - pull off
b - bend
br - bendRelease
pb - preBend
pbr - preBendRelease
brb - bendReleaseBend
\n/ - tremolo bar dip
\n - tremolo bar dive
-/n - tremolo bar Release up
/n\ - tremolo bar inverted dip
/n - tremolo bar return
-\n - tremolo bar Release down
S - shift slide
s - legato slide
/ -  slide into from below or out of upwards
\ -  slide into from above or out of downwards
~ - vibrato
W - wide vibrato
tr - trill
TP - tremolo picking
T - tapping
S - slap
P - pop
< - fade in
^ - brush up
v - brush down
Tap to rate this tab
 
# A B C D E F G H I J K L M N O P Q R S T U V W X Y Z