Song name
# A B C D E F G H I J K L M N O P Q R S T U V W X Y Z

Brian Setzer Orchestra - Drive Like Lightning tab

      TP                                                          
      W                    W                    W                 
E||---------------------|--0-----------------|--L----------------|
B||---------------------|--0-----------------|--L----------------|
G||---------------------|--0-----------------|--L----------------|
D||---------------------|--2-----------------|--L----------------|
A||---------------------|--2-----------------|--L----------------|
E||--12S----------------|--0~----------------|--L----------------|


  W                   H.           E  E      E  E  E   E  E  E  E  E   
--L----------------|--L------------0--3b--|--L--0---------------------|
--L----------------|--L---------------2b--|--L-----3b--0--3--2--0-----|
--L----------------|--L-------------------|---------------3--2--0-----|
--L----------------|--L-------------------|------------------------2--|
--L----------------|--L-------------------|---------------------------|
--L----------------|--L-------------------|---------------------------|


  E  E  Q    Q     E  E      E  E  E   E  E  E  E  E   
-------------------0--3b--|--L--0---------------------|
--2-----0-------------2b--|--L-----3b--0--3--2--0-----|
--2-----0-----------------|---------------3--2--0-----|
-----2-------2~-----------|------------------------2--|
--------------------------|---------------------------|
--------------------------|---------------------------|


  E  E  H          E   E      E   E   E    E   E   E   E   E   
------------------12--15b--|--L--12---------------------------|
--2-----0-------------14b--|--L------15b--12--15--14--12------|
--2-----0~-----------------|------------------15--14--12------|
-----2---------------------|------------------------------14--|
---------------------------|----------------------------------|
---------------------------|----------------------------------|


   E   E   Q     Q      E   E      E   E   E    E   E   E   E   E   
-----------------------12--15b--|--L--12---------------------------|
--14------12---------------14b--|--L------15b--12--15--14--12------|
--14------12--------------------|------------------15--14--12------|
------14--------14~-------------|------------------------------14--|
--------------------------------|----------------------------------|
--------------------------------|----------------------------------|


   E   E   H         Q       E  E  E  E  E  E  E  E   
--------------------------|--------------------------|
--14------12---------L----|--------------------------|
--14------12~--------L----|--------------------------|
------14------------------|--------------------------|
--------------------------|--2--2--2--2--2--2--2--2--|
--------------------------|--0--0--3--3--0--0--3--3--|


  E  E  E  E  E  E  E  E     E  E  E  E  E  E  E  E   
-----------------------0--|--L--L--L-----------------|
-----------------------0--|--L--L--L-----------------|
-----------------------0--|--L--L--L-----------------|
--------------------------|--------------------------|
--2--2--2--2--2--2--2--2--|--L--2--2--2-----2--------|
--0--0--3--3--0--0--3--0--|--L--0--3--0--6--0--5--3--|


  E  E  E  E  E  E  E  E     E  E  E  E  E  E  E  E   
--------------------------|--------------------------|
--------------------------|--------------------------|
--------------------------|--------------------------|
--------------------------|--------------------------|
--2--2--2--2-----2--------|--2--2--2--2--2--2--2--2--|
--0--0--3--0--6--0--5--6--|--0--0--3--3--0--0--3--3--|


  E  E  E  E  E  E  E  E     E  E  E  E  E  E  E  E   
-----------------------0--|--L--L--L-----------------|
-----------------------0--|--L--L--L-----------------|
-----------------------0--|--L--L--L-----------------|
--------------------------|--------------------------|
--2--2--2--2--2--2--2--2--|--L--2--2--2-----2--------|
--0--0--3--3--0--0--3--0--|--L--0--3--0--6--0--5--3--|


  E  E  E  E  E  E  E  E     E   E  E  E  E   E  E  E   
--------------------------|----------------------------|
--------------------------|----------------------------|
--------------------------|--3s--4--4--4--3s--4--4--4--|
--------------------------|--3s--4--4--4--3s--4--4--4--|
--2--2--2--2-----2--------|--1s--2--2--2--1s--2--2--2--|
--0--0--3--0--6--0--5--6--|----------------------------|


                                                       TP                 
  E   E  E  E  E   E  E  E     E  H        Q    E      W                  
----------------------------|--0-------------------|---------------------|
----------------------------|--0-------------------|---------------------|
--3s--4--4--4--3s--4--4--4--|--0-------------------|---------------------|
--3s--4--4--4--3s--4--4--4--|--2-------------------|---------------------|
--1s--2--2--2--1s--2--2--2--|--2-------------------|---------------------|
----------------------------|--0-------------------|--12S----------------|


  W                    H.           E  E      E  E  E   E  E  E  E  E   
--0-----------------|--L------------0--3b--|--L--0---------------------|
--0-----------------|--L---------------2b--|--L-----3b--0--3--2--0-----|
--0-----------------|--L-------------------|---------------3--2--0-----|
--2-----------------|--L-------------------|------------------------2--|
--2-----------------|--L-------------------|---------------------------|
--0~----------------|--L-------------------|---------------------------|


  E  E  Q    Q     E  E      E  E  E   E  E  E  E  E   
-------------------0--3b--|--L--0---------------------|
--2-----0-------------2b--|--L-----3b--0--3--2--0-----|
--2-----0-----------------|---------------3--2--0-----|
-----2-------2~-----------|------------------------2--|
--------------------------|---------------------------|
--------------------------|---------------------------|


  E  E  H          E   E      E   E   E    E   E   E   E   E   
------------------12--15b--|--L--12---------------------------|
--2-----0-------------14b--|--L------15b--12--15--14--12------|
--2-----0~-----------------|------------------15--14--12------|
-----2---------------------|------------------------------14--|
---------------------------|----------------------------------|
---------------------------|----------------------------------|


   E   E   Q     Q      E   E      E   E   E    E   E   E   E   E   
-----------------------12--15b--|--L--12---------------------------|
--14------12---------------14b--|--L------15b--12--15--14--12------|
--14------12--------------------|------------------15--14--12------|
------14--------14~-------------|------------------------------14--|
--------------------------------|----------------------------------|
--------------------------------|----------------------------------|


   E   E   H         Q       E  E  E  E  E  E  E  E   
--------------------------|--------------------------|
--14------12~--------L----|--------------------------|
--14------12---------L----|--------------------------|
------14------------------|--------------------------|
--------------------------|--2--2--2--2--2--2--2--2--|
--------------------------|--0--0--3--3--0--0--3--3--|


  E  E  E  E  E  E  E  E     E  E  E  E  E  E  E  E   
-----------------------0--|--L--L--L-----------------|
-----------------------0--|--L--L--L-----------------|
-----------------------0--|--L--L--L-----------------|
--------------------------|--------------------------|
--2--2--2--2--2--2--2--2--|--L--2--2--2-----2--------|
--0--0--3--3--0--0--3--0--|--L--0--3--0--6--0--5--3--|


  E  E  E  E  E  E  E  E     E  E  E  E  E  E  E  E   
--------------------------|--------------------------|
--------------------------|--------------------------|
--------------------------|--------------------------|
--------------------------|--------------------------|
--2--2--2--2-----2--------|--2--2--2--2--2--2--2--2--|
--0--0--3--0--6--0--5--6--|--0--0--3--3--0--0--3--3--|


  E  E  E  E  E  E  E  E     E  E  E  E  E  E  E  E   
-----------------------0--|--L--L--L-----------------|
-----------------------0--|--L--L--L-----------------|
-----------------------0--|--L--L--L-----------------|
--------------------------|--------------------------|
--2--2--2--2--2--2--2--2--|--L--2--2--2-----2--------|
--0--0--3--3--0--0--3--0--|--L--0--3--0--6--0--5--3--|


  E  E  E  E  E  E  E  E     E   E  E  E  E   E  E  E   
--------------------------|----------------------------|
--------------------------|----------------------------|
--------------------------|--3s--4--4--4--3s--4--4--4--|
--------------------------|--3s--4--4--4--3s--4--4--4--|
--2--2--2--2-----2--------|--1s--2--2--2--1s--2--2--2--|
--0--0--3--0--6--0--5--6--|----------------------------|


                                                       TP                 
  E   E  E  E  E   E  E  E     E  H        Q    E      W                  
----------------------------|--0-------------------|---------------------|
----------------------------|--0-------------------|---------------------|
--3s--4--4--4--3s--4--4--4--|--0-------------------|---------------------|
--3s--4--4--4--3s--4--4--4--|--2-------------------|---------------------|
--1s--2--2--2--1s--2--2--2--|--2-------------------|---------------------|
----------------------------|--0-------------------|--12S----------------|


  -/0          -/0             -/0          -/0           
  E   E  E  E  E   E  E  E     E   E  E  E  E   E  E  E   
----------------------------|----------------------------|
--2---2--2--2--2---2--2--2--|--2---2--2--2--2---2--2--2--|
--2---2--2--2--2---2--2--2--|--2---2--2--2--2---2--2--2--|
--2---2--2--2--2---2--2--2--|--2---2--2--2--2---2--2--2--|
--0---0--0--0--0---0--0--0--|--0---0--0--0--0---0--0--0--|
----------------------------|----------------------------|


  -/0          -/0             -/0          -/0           
  E   E  E  E  E   E  E  E     E   E  E  E  E   E  E  E   
----------------------------|----------------------------|
----------------------------|----------------------------|
----------------------------|----------------------------|
--2---2--2--2--2---2--2--2--|--2---2--2--2--2---2--2--2--|
--2---2--2--2--2---2--2--2--|--2---2--2--2--2---2--2--2--|
--0---0--0--0--0---0--0--0--|--0---0--0--0--0---0--0--0--|


  -/0          -/0             -/0          -/0           
  E   E  E  E  E   E  E  E     E   E  E  E  E   E  E  E   
----------------------------|----------------------------|
--2---2--2--2--2---2--2--2--|--2---2--2--2--2---2--2--2--|
--2---2--2--2--2---2--2--2--|--2---2--2--2--2---2--2--2--|
--2---2--2--2--2---2--2--2--|--2---2--2--2--2---2--2--2--|
--0---0--0--0--0---0--0--0--|--0---0--0--0--0---0--0--0--|
----------------------------|----------------------------|


  E  E  E  E  E  E  E  E     E  E  E  E  E  E  E  E   
--------------------------|--2--2--2--2--2--2--2--2--|
--------------------------|--0--0--0--0--0--0--0--0--|
--3--3--3--3--3--3--3--3--|--2--2--2--2--2--2--2--2--|
--4--4--4--4--4--4--4--4--|--1--1--1--1--1--1--1--1--|
--4--4--4--4--4--4--4--4--|--2--2--2--2--2--2--2--2--|
--2--2--2--2--2--2--2--2--|--------------------------|


  E  E  E  E  E  E  E  E     E  E  E  E  E  E  E  E   
--------------------------|--------------------------|
--------------------------|--------------------------|
--------------------------|--------------------------|
--------------------------|--------------------------|
--2--2--2--2--2--2--2--2--|--2--2--2--2--2--2--2--2--|
--0--0--3--3--0--0--3--3--|--0--0--3--3--0--0--3--3--|


                                |----3---|                     
  E  Q     S  S  E  E  E  E     E    E   E  E  E  E  E  E  E   
-----3b----0h-2p-0-----------|--------------------------------|
--------------------3--2--0--|--------------------------------|
-----------------------------|--2br--Lp--0--------------------|
-----------------------------|--------------2--0--------------|
-----------------------------|--------------------2--0-----2--|
-----------------------------|--------------------------3--0--|


  E  E  E  E  E  E  E  E     E  E  E  E  E  E  E  E   
--------------------------|-----------------------0--|
--------------------------|-----------------------0--|
--------------------------|-----------------------0--|
--------------------------|--------------------------|
--L--2--2--2--2--2--2--2--|--2--2--2--2--2--2--2--2--|
--L--0--3--3--0--0--3--3--|--0--0--3--3--0--0--3--0--|


  E  E  E  E  E  E  E  E     E  E  E  E  E  E  E  E   
--L--L--L-----------------|--------------------------|
--L--L--L-----------------|--------------------------|
--L--L--L-----------------|--------------------------|
--------------------------|--------------------------|
--L--2--2--2-----2--------|--2--2--2--2-----2--------|
--L--0--3--0--6--0--5--3--|--0--0--3--0--6--0--5--6--|


  E   E  E  E  E   E  E  E     E   E  E  E  E   E  E  E   
----------------------------|----------------------------|
----------------------------|----------------------------|
--3s--4--4--4--3s--4--4--4--|--3s--4--4--4--3s--4--4--4--|
--3s--4--4--4--3s--4--4--4--|--3s--4--4--4--3s--4--4--4--|
--1s--2--2--2--1s--2--2--2--|--1s--2--2--2--1s--2--2--2--|
----------------------------|----------------------------|


                          TP                                     
  E  H        Q    E      W                    W                 
--0-------------------|---------------------|--0----------------|
--0-------------------|---------------------|--0----------------|
--0-------------------|---------------------|--0----------------|
--2-------------------|---------------------|--2----------------|
--2-------------------|---------------------|--2----------------|
--0-------------------|--12S----------------|--0----------------|


  W                   W                   E  E  E  E  E  E  E  E   
--L----------------|--L----------------|--------------------------|
--L----------------|--L----------------|--------------------------|
--L----------------|--L----------------|--------------------------|
--L----------------|--L----------------|--------------------------|
--L----------------|--L----------------|--2--2--2--2--2--2--2--2--|
--L----------------|--L----------------|--0--0--3--3--0--0--3--3--|


  E  E  E  E  E  E  E  E     E  E  E  E  E  E  E  E   
--------------------------|--------------------------|
--------------------------|--------------------------|
--------------------------|--------------------------|
--------------------------|--------------------------|
--2--2--2--2--2--2--2--2--|--2--2--2--2--2--2--2--2--|
--0--0--3--3--0--0--3--3--|--0--0--3--3--0--0--3--3--|


  E  E  E  E  E  E  E  E     E  E  E  E  E  E  E  E   
--------------------------|--------------------------|
--------------------------|--------------------------|
--------------------------|--------------------------|
--------------------------|--------------------------|
--2--2--2--2--2--2--2--2--|--2--2--2--2--2--2--2--2--|
--0--0--3--3--0--0--3--3--|--0--0--3--3--0--0--3--3--|


  E  E  E  E  E  E  E  E     E  E  E  E  E  E  E  E   
--------------------------|--------------------------|
--------------------------|--------------------------|
--------------------------|--------------------------|
--------------------------|--------------------------|
--2--2--2--2--2--2--2--2--|--2--2--2--2--2--2--2--2--|
--0--0--3--3--0--0--3--3--|--0--0--3--3--0--0--3--3--|


  E  E  E  E  E  E  E  E     E  E  E  E  E  E  E  E   
--------------------------|--------------------------|
--------------------------|--------------------------|
--------------------------|--------------------------|
--------------------------|--------------------------|
--2--2--2--2--2--2--2--2--|--2--2--2--2--2--2--2--2--|
--0--0--3--3--0--0--3--3--|--0--0--3--3--0--0--3--3--|


  E  E  E  E  E  E  E  E     E  E  E  E  E  E  E  E   
--------------------------|--------------------------|
--------------------------|--------------------------|
--------------------------|--------------------------|
--------------------------|--------------------------|
--2--2--2--2--2--2--2--2--|--2--2--2--2--2--2--2--2--|
--0--0--3--3--0--0--3--3--|--0--0--3--3--0--0--3--3--|


  E  E  E  E  E  E  E  E     E  E  E  E  E  E  E  E   
--------------------------|--------------------------|
--------------------------|--------------------------|
--------------------------|--------------------------|
--------------------------|--------------------------|
--2--2--2--2--2--2--2--2--|--2--2--2--2--2--2--2--2--|
--0--0--3--3--0--0--3--3--|--0--0--3--3--0--0--3--3--|


  E  S S E  S S E  S S E  S S    E  S S E  S S E  S S E  S S  
------------------------------|------------------------------|
------------------------------|------------------------------|
------------------------------|------------------------------|
------------------------------|------------------------------|
------------------------------|------------------------------|
--0--0-0-0--0-0-0--0-0-7--7-7-|--6--6-6-6--6-6-6--6-6-6--6-6-|


  E  S S E  S S E  S S E  S S    E  S S E  S S E  S S E  S S  
------------------------------|------------------------------|
------------------------------|------------------------------|
------------------------------|----------------8--8-8-8--8-8-|
-----------------------9--9-9-|--8--8-8-8--8-8---------------|
--7--7-7-7--7-7-7--7-7--------|------------------------------|
------------------------------|------------------------------|


  E  S S E  S S E  S S E  S S    E  S S E  S S E  S S E  S S  
------------------------------|------------------------------|
------------------------------|------------------------------|
--9--9-9-9--9-9---------------|------------------------------|
----------------8--8-8-8--8-8-|--9--9-9-9--9-9---------------|
------------------------------|----------------6--6-6-6--6-6-|
------------------------------|------------------------------|


                                          PM    PM               
  E  S S E  S S  E   S  S  E   S  S    E  E  E  E  E  E   E  E   
------------------------------------|---------------------------|
------------------------------------|---------------------------|
------------------------------------|---------------------------|
----------------10--10-10-10--10-10-|--9-----9-----9--7---------|
--7--7-7-7--7-7---------------------|--------------------10--9--|
------------------------------------|-----7-----7---------------|


  S  S S S S  S S S S  S S S S  S S S    S  S S S S  S S S S  S S S S  S S S  
-----------------------------7p-0-0-0-|--6p-0-0-0-6p-0-0-0-6p-0-0-0-6p-0-0-0-|
--5p-0-0-0-5p-0-0-0-5p-0-0-0----------|--------------------------------------|
--------------------------------------|--------------------------------------|
--------------------------------------|--------------------------------------|
--------------------------------------|--------------------------------------|
--------------------------------------|--------------------------------------|


   S  S  S  S  S  S  S  S  S  S  S  S  S  S  S  S  
--12-12-12-12-12-12-12-12-12-12-12-12-19-19-19-19-|
--------------------------------------------------|
--------------------------------------------------|
--------------------------------------------------|
--------------------------------------------------|
--------------------------------------------------|


   S  S  S  S  S  S  S  S  S  S  S  S  S  S  S  S  
--18-18-18-18-18-18-18-18-11-11-11-11-11-11-11-11-|
--------------------------------------------------|
--------------------------------------------------|
--------------------------------------------------|
--------------------------------------------------|
--------------------------------------------------|


   S  S  S  S  S  S  S  S  S  S  S  S  S  S  S  S  
--12-12-12-12-12-12-12-12-------------------------|
--------------------------11-11-11-11-11-11-11-11-|
--------------------------------------------------|
--------------------------------------------------|
--------------------------------------------------|
--------------------------------------------------|


   S  S  S  S  S  S  S  S H            H         Q.      E   
------------------------------------|------------8~------8--|
--12-12-12-12-12-12-12-12-----------|-----------------------|
--------------------------8~--------|--9~-------------------|
------------------------------------|-----------------------|
------------------------------------|-----------------------|
------------------------------------|-----------------------|


      PM PM PM     PM PM PM        PM PM PM     PM PM PM  
  E   E  E  E  E   E  E  E     E   E  E  E  E   E  E  E   
--7------------7------------|--8------------8------------|
-----10--8--7-----10--8--7--|-----10--8--7-----10--8--7--|
----------------------------|----------------------------|
----------------------------|----------------------------|
----------------------------|----------------------------|
----------------------------|----------------------------|


   S  S  S S  S  S  S S  S  S  S S  S  S  S S  
--10p-7p-0-0-10p-7p-0-0-11p-8p-0-0-11p-8p-0-0-|
----------------------------------------------|
----------------------------------------------|
----------------------------------------------|
----------------------------------------------|
----------------------------------------------|


   S  S  S S  S  S  S S  S   S  S S  S   S  S S  
--12p-9p-0-0-12p-9p-0-0-13p-10p-0-0-13p-10p-0-0-|
------------------------------------------------|
------------------------------------------------|
------------------------------------------------|
------------------------------------------------|
------------------------------------------------|


   S   S  S S  S   S  S S  S   S  S S  S   S  S S  
--14p-11p-0-0-15p-12p-0-0-16p-13p-0-0-17p-14p-0-0-|
--------------------------------------------------|
--------------------------------------------------|
--------------------------------------------------|
--------------------------------------------------|
--------------------------------------------------|


   S  S  S  S  S  S  S  S  S  S  S  S  S  S  S  S    W                  
--18-18-19-19-20-20-21-21-22-22-22-22-22-22-22-22-|--0~----------------|
--------------------------------------------------|--0-----------------|
--------------------------------------------------|--0~----------------|
--------------------------------------------------|--2~----------------|
--------------------------------------------------|--2~----------------|
--------------------------------------------------|--0~----------------|


  H.           E  E      E  E  E   E  E  E  E  E     E  E  Q    Q     E  E    
--L------------0--3b--|--L--0---------------------|-------------------0--3b--|
--L---------------2b--|--L-----3b--0--3--2--0-----|--2-----0-------------2b--|
--L-------------------|---------------3--2--0-----|--2-----0-----------------|
--L-------------------|------------------------2--|-----2-------2~-----------|
--L-------------------|---------------------------|--------------------------|
--L-------------------|---------------------------|--------------------------|


  E  E  E   E  E  E  E  E     E  E  H          E   E    
--L--0---------------------|------------------12--15b--|
--L-----3b--0--3--2--0-----|--2-----0-------------14b--|
---------------3--2--0-----|--2-----0~-----------------|
------------------------2--|-----2---------------------|
---------------------------|---------------------------|
---------------------------|---------------------------|


  E   E   E    E   E   E   E   E      E   E   Q     Q      E   E    
--L--12---------------------------|-----------------------12--15b--|
--L------15b--12--15--14--12------|--14------12---------------14b--|
------------------15--14--12------|--14------12--------------------|
------------------------------14--|------14--------14~-------------|
----------------------------------|--------------------------------|
----------------------------------|--------------------------------|


  E   E   E    E   E   E   E   E      E   E   H         Q     
--L--12---------------------------|--------------------------|
--L------15b--12--15--14--12------|--14------12~--------L----|
------------------15--14--12------|--14------12---------L----|
------------------------------14--|------14------------------|
----------------------------------|--------------------------|
----------------------------------|--------------------------|


  E  E  E  E  E  E  E  E     E  E  E  E  E  E  E  E   
--------------------------|-----------------------0--|
--------------------------|-----------------------0--|
--------------------------|-----------------------0--|
--------------------------|--------------------------|
--2--2--2--2--2--2--2--2--|--2--2--2--2--2--2--2--2--|
--0--0--3--3--0--0--3--3--|--0--0--3--3--0--0--3--0--|


  E  E  E  E  E  E  E  E     E  E  E  E  E  E  E  E   
--L--L--L-----------------|--------------------------|
--L--L--L-----------------|--------------------------|
--L--L--L-----------------|--------------------------|
--------------------------|--------------------------|
--L--2--2--2-----2--------|--2--2--2--2-----2--------|
--L--0--3--0--6--0--5--3--|--0--0--3--0--6--0--5--6--|


  E  E  E  E  E  E  E  E     E  E  E  E  E  E  E  E   
--------------------------|-----------------------0--|
--------------------------|-----------------------0--|
--------------------------|-----------------------0--|
--------------------------|--------------------------|
--2--2--2--2--2--2--2--2--|--2--2--2--2--2--2--2--2--|
--0--0--3--3--0--0--3--3--|--0--0--3--3--0--0--3--0--|


  E  E  E  E  E  E  E  E     E  E  E  E  E  E  E  E   
--L--L--L-----------------|--------------------------|
--L--L--L-----------------|--------------------------|
--L--L--L-----------------|--------------------------|
--------------------------|--------------------------|
--L--2--2--2-----2--------|--2--2--2--2-----2--------|
--L--0--3--0--6--0--5--3--|--0--0--3--0--6--0--5--6--|


  E   E  E  E  E   E  E  E     E   E  E  E  E   E  E  E   
----------------------------|----------------------------|
----------------------------|----------------------------|
--3s--4--4--4--3s--4--4--4--|--3s--4--4--4--3s--4--4--4--|
--3s--4--4--4--3s--4--4--4--|--3s--4--4--4--3s--4--4--4--|
--1s--2--2--2--1s--2--2--2--|--1s--2--2--2--1s--2--2--2--|
----------------------------|----------------------------|


                          TP                   -/0          -/0           
  E  H        Q    E      W                    E   E  E  E  E   E  E  E   
--0-------------------|---------------------|----------------------------|
--0-------------------|---------------------|--2---2--2--2--2---2--2--2--|
--0-------------------|---------------------|--2---2--2--2--2---2--2--2--|
--2-------------------|---------------------|--2---2--2--2--2---2--2--2--|
--2-------------------|---------------------|--0---0--0--0--0---0--0--0--|
--0-------------------|--12S----------------|----------------------------|


  -/0          -/0             -/0          -/0           
  E   E  E  E  E   E  E  E     E   E  E  E  E   E  E  E   
----------------------------|----------------------------|
--2---2--2--2--2---2--2--2--|----------------------------|
--2---2--2--2--2---2--2--2--|----------------------------|
--2---2--2--2--2---2--2--2--|--2---2--2--2--2---2--2--2--|
--0---0--0--0--0---0--0--0--|--2---2--2--2--2---2--2--2--|
----------------------------|--0---0--0--0--0---0--0--0--|


  -/0          -/0             -/0          -/0           
  E   E  E  E  E   E  E  E     E   E  E  E  E   E  E  E   
----------------------------|----------------------------|
----------------------------|--2---2--2--2--2---2--2--2--|
----------------------------|--2---2--2--2--2---2--2--2--|
--2---2--2--2--2---2--2--2--|--2---2--2--2--2---2--2--2--|
--2---2--2--2--2---2--2--2--|--0---0--0--0--0---0--0--0--|
--0---0--0--0--0---0--0--0--|----------------------------|


  -/0          -/0                                      
  E   E  E  E  E   E  E  E     E  E  E  E  E  E  E  E   
----------------------------|--------------------------|
--2---2--2--2--2---2--2--2--|--------------------------|
--2---2--2--2--2---2--2--2--|--3--3--3--3--3--3--3--3--|
--2---2--2--2--2---2--2--2--|--4--4--4--4--4--4--4--4--|
--0---0--0--0--0---0--0--0--|--4--4--4--4--4--4--4--4--|
----------------------------|--2--2--2--2--2--2--2--2--|


                                                     TP                 
  E  E  E  E  E  E  E  E     E  E  Q    H            W                  
--2--2--2--2--2--2--2--2--|--0-------------------|---------------------|
--0--0--0--0--0--0--0--0--|--0-------------------|---------------------|
--2--2--2--2--2--2--2--2--|--0-------------------|---------------------|
--1--1--1--1--1--1--1--1--|--2-------------------|---------------------|
--2--2--2--2--2--2--2--2--|--2-------------------|---------------------|
--------------------------|--0-------------------|--12S----------------|


                          TP                                        
  E  E  Q    H            W                    E  E  Q    H         
--0-------------------|--12\----------------|--0-------------------|
--0-------------------|--12\----------------|--0-------------------|
--0-------------------|---------------------|--0-------------------|
--2-------------------|---------------------|--2-------------------|
--2-------------------|---------------------|--2-------------------|
--0-------------------|---------------------|--0-------------------|


   TP                                                                    
   W                    E  E  Q    H           E  E  E  E  E  E  E  E    
---------------------|--0-------------------|--2--2--2--2--2--2--0--3b--|
---------------------|--0-------------------|--0--0--0--0--0--0-----2b--|
---------------------|--0-------------------|--2--2--2--2--2--2---------|
---------------------|--2-------------------|--1--1--1--1--1--1---------|
---------------------|--2-------------------|--2--2--2--2--2--2---------|
--12S----------------|--0-------------------|---------------------------|


  E  E  E   E  E  E  E  E     E  E  Q    Q     E  E    
--L--0---------------------|-------------------0--3b--|
--L-----3b--0--3--2--0-----|--2-----0-------------2b--|
---------------3--2--0-----|--2-----0-----------------|
------------------------2--|-----2-------2~-----------|
---------------------------|--------------------------|
---------------------------|--------------------------|


  E  E  E   E  E  E  E  E     E  E  H          E   E    
--L--0---------------------|------------------12--15b--|
--L-----3b--0--3--2--0-----|--2-----0-------------14b--|
---------------3--2--0-----|--2-----0~-----------------|
------------------------2--|-----2---------------------|
---------------------------|---------------------------|
---------------------------|---------------------------|


  E   E   E    E   E   E   E   E      E   E   Q     Q      E   E    
--L--12---------------------------|-----------------------12--15b--|
--L------15b--12--15--14--12------|--14------12---------------14b--|
------------------15--14--12------|--14------12--------------------|
------------------------------14--|------14--------14~-------------|
----------------------------------|--------------------------------|
----------------------------------|--------------------------------|


  E   E   E    E   E   E   E   E      E   E   E   E  H          
--L--12---------------------------|---------------------------||
--L------15b--12--15--14--12------|--14------12---------------||
------------------15--14--12------|--14------12---------------||
------------------------------14--|------14------14-----------||
----------------------------------|---------------------------||
----------------------------------|---------------------------||
Tap to rate this tab
 
# A B C D E F G H I J K L M N O P Q R S T U V W X Y Z