Song name
# A B C D E F G H I J K L M N O P Q R S T U V W X Y Z

Brian Setzer - Smokin And A Burnin tab

     Q    Q    E  E   E  E     E  E  E  E  E  E  E  E   
E||---------------4s--5--5--|--5--x--5--x--5-----5-----|
B||---------------4s--5--5--|--5--x--8--x--7--x--6--x--|
G||-------------------------|--------------------------|
D||-------------------------|--------------------------|
A||-------------------------|--------------------------|
E||-------------------------|--------------------------|


  |---3---|                                                           
  E   E   E  E  E   E  E  E  E      E  E    E    E    E     E  E  E   
---------------------------------|-----------------------------------|
--5h--7p--5----------------------|-----------------------------------|
-------------7--5h--6-----5--7b--|--L--7pb--7pb--7pb--7pbr--5--------|
-----------------------7---------|-----------------------------7--5--|
---------------------------------|-----------------------------------|
---------------------------------|-----------------------------------|


  E    Q     E   Q     Q       Q    Q    E  Q    E    
----------------------------|------------------------|
-----/12----12--11----10----|--9----8----7--6----4s--|
-----/12----12--11----10----|--9----8----7--6----4s--|
--7--/11----11--10-----9----|--8----7----6--5--------|
-----/12----12--11----10----|--9----8----7--6--------|
----------------------------|------------------------|


  E  E  E  E   E  E  E  E      E  E  E  E   E  E  E  E   
----------------------------|---------------------------|
--5-----4--7p--5-----4--7h--|--5-----4--7p--5-----4-----|
--5-----4--7p--5-----4--7h--|--5-----4--7p--5-----4-----|
-----7------------7---------|-----7------------7-----7--|
----------------------------|---------------------------|
----------------------------|---------------------------|


                             tr                        
    Q    E  E  Q    Q        Q        E  Q     Q.      
-------------------------|---------------5\-----------|
----5----5-----7----7----|---5-----------5\-----------|
--5g6----6-----7----7----|--(5)(6)--------------------|
------------7------------|------------7---------------|
-------------------------|----------------------------|
-------------------------|----------------------------|


   E  E  E  E    E   E   E   E      E  E  E  E    E   E   E   E   
--/7--7--7--7s--10--10--10--10s--|--5--5--5--5s---8---8---8---8--|
--/9--9--9--9s--12--12--12--12s--|--7--7--7--7s--10--10--10--10--|
---------------------------------|-------------------------------|
---------------------------------|-------------------------------|
---------------------------------|-------------------------------|
---------------------------------|-------------------------------|


  Q     E  E   H           Q     E   E    H           E  E  E  E  E  E  E  E   
--8b----5--5\-----------|--------------------------|--------------------------|
--7b----5--5\-----------|--------------------------|--------------------------|
------------------------|--5b----------------------|-----2-----2-----2-----2--|
------------------------|--------7~--7\~-----------|--2--2-----2--2--2--2--2--|
------------------------|--------------------------|--0-----------0-----3-----|
------------------------|--------------------------|--------3-----------------|


  E  E  E  E  E  E  E  E     E  E  E  E  E  E  E  E   
--------------------------|--------------------------|
--------------------------|--------------------------|
-----2-----2-----2-----2--|--L--2-----2-----2-----2--|
--2--2-----2--2--2--2--2--|--L--2-----2--2--2--2--2--|
--0-----------0-----3-----|--------------0-----3-----|
--------3-----------------|--------3-----------------|


  E  E  E  E  E  E  E  E     E  E  E  E  E  Q    E     E  E  E  Q     Q.      
--------------------------|-----5--5--x--4--5----5--|--5--x--4--5\-----------|
--------------------------|-----7--7--x--6--7----7--|--7--x--6--7\-----------|
-----2-----2-----2-----2--|-----6--6--x--5--6----6--|--6--x--5--6\-----------|
--2--2-----2--2--2--2--2--|-----7--7--x--6--7----7--|--7--x--6--7\-----------|
--0-----------0-----3-----|-------------------------|------------------------|
--------3-----------------|-------------------------|------------------------|


  E  E  E  E  E  Q    E     E  E  E  Q     Q.        E  E  E  E  E  E  E  E   
-----5--5--x--4--5----5--|--5--x--4--5\-----------|--------------------------|
-----7--7--x--6--7----7--|--7--x--6--7\-----------|-----3-----3-----3-----3--|
-----6--6--x--5--6----6--|--6--x--5--6\-----------|-----2-----2-----2-----2--|
-----7--7--x--6--7----7--|--7--x--6--7\-----------|--0-----------0-----3-----|
-------------------------|------------------------|--------3-----------------|
-------------------------|------------------------|--------------------------|


  E  E  E  E  E  E  E  E     E  E  E  E  E  E  E  E   
--------------------------|--------------------------|
-----3-----3-----3-----3--|-----3-----3-----3-----3--|
-----2-----2-----2-----2--|-----2-----2-----2-----2--|
--0-----------0-----3-----|--0-----------0-----3-----|
--------3-----------------|--------3-----------------|
--------------------------|--------------------------|


  E  E  E  E  E  E  E  E     E  E  E  E  E  Q    E     E  E  E  Q     Q.      
--------------------------|-----5--5--x--4--5----5--|--5--x--4--5\-----------|
-----3-----3-----3-----3--|-----7--7--x--6--7----7--|--7--x--6--7\-----------|
-----2-----2-----2-----2--|-----6--6--x--5--6----6--|--6--x--5--6\-----------|
--0-----------0-----3-----|-----7--7--x--6--7----7--|--7--x--6--7\-----------|
--------3-----------------|-------------------------|------------------------|
--------------------------|-------------------------|------------------------|


  E  E  E  E  E  E  E  E     E  E  E  E  E  E  E  E   
--------------------------|--------------------------|
--------------------------|--------------------------|
--------------------------|--------------------------|
-----2-----2-----2-----2--|-----2-----2-----2-----2--|
-----2-----2-----2-----2--|-----2-----2-----2-----2--|
--0-----3-----0-----3-----|--0-----3-----0-----3-----|


  E  E  E  E  E  E  E  E     E  E  E  E  E  E  E  E     E  E  E  E  E  Q    E   
--------------------------|--------------------------|-----5--5--x--4--5----5--|
--------------------------|--------------------------|-----7--7--x--6--7----7--|
--------------------------|--------------------------|-----6--6--x--5--6----6--|
-----2-----2-----2-----2--|-----2-----2-----2-----2--|-----7--7--x--6--7----7--|
-----2-----2-----2-----2--|-----2-----2-----2-----2--|-------------------------|
--0-----3-----0-----3-----|--0-----3-----0-----3-----|-------------------------|


  E  E  E  Q     Q.        E  E  E  E  E  Q    E     E  E  E  H        E   
--5--x--4--5\-----------|-----5--5--x--4--5----5--|--5--x--8--7-----------|
--7--x--6--7\-----------|-----7--7--x--6--7----7--|--7--x--8--7-----------|
--6--x--5--6\-----------|-----6--6--x--5--6----6--|--6--x--8--7-----------|
--7--x--6--7\-----------|-----7--7--x--6--7----7--|--7--x--7--6-----------|
------------------------|-------------------------|--------8--7-----------|
------------------------|-------------------------|-----------------------|


  E  E  E  E  E  E  E  E     E  E  E  E  E  E  E  E    
--------------------------|---------------------------|
--------------------------|-----------------------5---|
-----2-----2-----2-----2--|-----2-----2-----2-----5h--|
--2--2-----2--2--2--2--2--|--2--2-----2--2--2--2------|
--0-----------0-----3-----|--0-----------0-----3------|
--------3-----------------|--------3------------------|


  E  E  E  E   E  E  E  E      E  E  E  Q     Q.      
-----5-----8b--L--5---------|-----5------------------|
--L-------------------------|-----------8\-----------|
--6---------------------5h--|--6---------------------|
--------5------------5------|--------5---------------|
----------------------------|------------------------|
--5------------5------------|--5---------------------|


    Q     E   E    E   E   E    E      E    E   E    H        E   
---------12-------12--12-------12--|-------12--------------------|
--/12--------12b----------12b------|--12b------12b--12-----------|
--/12--------12b----------12b------|--12b------12b--12-----------|
-----------------------------------|-----------------------------|
-----------------------------------|-----------------------------|
-----------------------------------|-----------------------------|


    Q     E   E    E   E   E    E      E    E   E    E      Q    Q     
---------12-------12--12-------12--|-------12-------------------------|
--/12--------12b----------12b------|--12b------12b---Lpbr--12---------|
--/12--------12b----------12b------|--12b------12b---Lpbr--12---------|
-----------------------------------|----------------------------------|
-----------------------------------|----------------------------------|
-----------------------------------|----------------------------------|


   Q    E  E  E  E  E  E     E  E  E  E  E  E  Q       E  E  E  E  E  E  E  E   
-----------5--------------|-------------------------|--------------------------|
-----------------5--------|-----5-----------5-------|--------------------------|
-----------------------5--|-----------5-------------|-----5-----5-----5-----5--|
--------4-----------4-----|--------4-----------4----|-----4-----4-----4-----4--|
--/5----------5-----------|--5-----------5----------|--5-----5-----5-----5-----|
--------------------------|-------------------------|--------------------------|


  E  E  E  E  E  E  E  E       Q     E   E    E   E   E    E   
--------------------------|---------12-------12--12-------12--|
--------------------------|--/12--------12b----------12b------|
-----5-----5-----5-----5--|--/12--------12b----------12b------|
-----4-----4-----4-----4--|-----------------------------------|
--5-----5-----5-----5-----|-----------------------------------|
--------------------------|-----------------------------------|


   E    E   E    H        E     E  E  E  E  E  E  E  E   
-------12--------------------|-----------0--------------|
--12b------12b--12-----------|-----------------0--------|
--12b------12b--12-----------|-----------------------1--|
-----------------------------|-----2--------------------|
-----------------------------|--------------------------|
-----------------------------|--0-----0-----0-----0-----|


  E  E  E  E  E  E  E  E     E  E  E  E  E  E  Q        E  E  E  E  E  E  Q     
-----------0--------------|-------------------------|--------------------------|
-----------------0--------|-----0-----------0-------|------------5-------------|
-----------------------1--|-----------1-------------|------7-----------7-------|
-----2--------------------|-------------------------|---------6-----------6----|
--------------------------|-------------------------|--/7-----------7----------|
--0-----0-----0-----0-----|--0-----0-----0-----0----|--------------------------|


  E  E  E  E  E  Q    E     E  E  E  Q     Q     E     E  E  E  E  E  Q    E   
-----5--5--x--4--5----5--|--5--x--4--5\-------------|-----5--5--x--4--5----5--|
-----7--7--x--6--7----7--|--7--x--6--7\-------------|-----7--7--x--6--7----7--|
-----6--6--x--5--6----6--|--6--x--5--6\-------------|-----6--6--x--5--6----6--|
-----7--7--x--6--7----7--|--7--x--6--7\-------------|-----7--7--x--6--7----7--|
-------------------------|-----------------3b----0--|-------------------------|
-------------------------|--------------------------|-------------------------|


  E  E  E  H        E     Q    Q    E  Q.         Q    Q    Q    Q     
--5--x--8--7-----------|-----------------------|----------------------|
--7--x--8--7-----------|-----------------------|--3-------------------|
--6--x--8--7-----------|--2--------------------|--2--------------8----|
--7--x--7--6-----------|--2--------------------|--0--------------7----|
--------8--7-----------|--0------------3b------|-----------------6----|
-----------------------|-----------------------|----------------------|


  W                     E   E    E   E   E  E   E  E   
-------------------|----------------------------------|
-------------------|----------------------------------|
-------------------|--/12--12s--10--10s--9--9s--7--7--|
-------------------|--/11--11s---9---9s--8--8s--6--6--|
-------------------|--/12--12s--10--10s--9--9s--7--7--|
-------------------|----------------------------------|


  E  E  E  E  E  E  E  E     E  E  E  E  E  E  E  E   
--------------------------|--------------------------|
-----3-----3-----3-----3--|-----3-----3-----3-----3--|
-----2-----2-----2-----2--|-----2-----2-----2-----2--|
--0-----------0-----3-----|--0-----------0-----3-----|
--------3-----------------|--------3-----------------|
--------------------------|--------------------------|


  E  E  E  E  E  E  E  E     E  E  E  E  E  E  E  E   
--------------------------|--------------------------|
--------------------------|--------------------------|
-----2-----2-----2-----2--|-----2-----2-----2-----2--|
--2--2-----2--2--2--2--2--|--2--2-----2--2--2--2--2--|
--0-----------0-----3-----|--0-----------0-----3-----|
--------3-----------------|--------3-----------------|


  E  E  E  E  E  E  E  E     E  E  E  E  E  E  E  E   
--------------------------|--------------------------|
--------------------------|--------------------------|
--------------------------|--------------------------|
-----2-----2-----2-----2--|-----2-----2-----2-----2--|
-----2-----2-----2-----2--|-----2-----2-----2-----2--|
--0-----3-----0-----3-----|--0-----3-----0-----3-----|


  E  E  E  E  E  E  E  E     E  E  E  E  Q     E  E   
--------------------------|-------------------/5--5--|
--------------------------|-------------------/5--5--|
-----2-----2-----2-----2--|--------------------------|
--2--2-----2--2--2--2--2--|-----2-----2--------------|
--0-----------0-----3-----|-----2-----2--------------|
--------3-----------------|--0-----0-----3-----------|


                             |---3---|                       
  E  E  E  E  E  E  E  E     E   E   E  E  E   E  E  E  E    
--5--x--5--x--5-----5-----|---------------------------------|
--5--x--8--x--7--x--6--x--|--5h--7p--5----------------------|
--------------------------|-------------7--5h--6-----5--7b--|
--------------------------|-----------------------7---------|
--------------------------|---------------------------------|
--------------------------|---------------------------------|


  E  E    E    E    E     E  E  E     E    Q     E   Q     Q     
-----------------------------------|----------------------------|
-----------------------------------|-----/12----12--11----10----|
--L--7pb--7pb--7pb--7pbr--5--------|-----/12----12--11----10----|
-----------------------------7--5--|--7--/11----11--10-----9----|
-----------------------------------|-----/12----12--11----10----|
-----------------------------------|----------------------------|


  Q    Q    E  Q    E      E  E  E  E   E  E  E  E    
------------------------|----------------------------|
--9----8----7--6----4s--|--5-----4--7p--5-----4--7h--|
--9----8----7--6----4s--|--5-----4--7p--5-----4--7h--|
--8----7----6--5--------|-----7------------7---------|
--9----8----7--6--------|----------------------------|
------------------------|----------------------------|


  E  E  E  E   E  E  E  E       Q    E  E  Q    Q     
---------------------------|-------------------------|
--5-----4--7p--5-----4-----|----5----5-----7----7----|
--5-----4--7p--5-----4-----|--5g6----6-----7----7----|
-----7------------7-----7--|------------7------------|
---------------------------|-------------------------|
---------------------------|-------------------------|


   tr                                                         
   Q        E  Q    Q.         E  E  E  E    E   E   E   E    
---------------------------|--/7--7--7--7s--10--10--10--10s--|
---5-----------------------|--/9--9--9--9s--12--12--12--12s--|
--(5)(6)----6--6-----------|---------------------------------|
------------7--7-----------|---------------------------------|
---------------------------|---------------------------------|
---------------------------|---------------------------------|


  E  E  E  E    E   E   E   E     Q     E  E   H         
--5--5--5--5s---8---8---8---8--|--8b----5--5\-----------|
--7--7--7--7s--10--10--10--10--|--7b----5--5\-----------|
-------------------------------|------------------------|
-------------------------------|------------------------|
-------------------------------|------------------------|
-------------------------------|------------------------|


  Q     E   E    H             E   E   E   E    E   E   E   E    
--------------------------|--/12--12--12--12s--15--15--15--15s--|
--5b----------------------|--/14--14--14--14s--17--17--17--17s--|
--5b----------------------|-------------------------------------|
--------7~--7\~-----------|-------------------------------------|
--------------------------|-------------------------------------|
--------------------------|-------------------------------------|


   E   E   E   E    E   E   E   E      Q     E   E    Q     E   E   
--12--12--12--12s--15--15--15--15--|--12----12--12s--10----10--10--|
--14--14--14--14s--17--17--17--17--|--14----14--14s--12----12--12--|
-----------------------------------|-------------------------------|
-----------------------------------|-------------------------------|
-----------------------------------|-------------------------------|
-----------------------------------|-------------------------------|


   Q     E   E   Q    E  E     Q    E  E   Q    E  E   
---9-----9---9s--7----7--7--|--5----5--5s--3----3--3--|
--10----10--10s--8----8--8--|--7----7--7s--5----5--5--|
----------------------------|-------------------------|
----------------------------|-------------------------|
----------------------------|-------------------------|
----------------------------|-------------------------|


                 |---3--|           |---3--|              
  Q    E  Q.     E   E  E     Q     E   E  E  Q     Q     
--2----1--0----------------|--8b--------------8b---------|
--3----2--1------5h--7--5--|--7b----5h--7--5--7b----5----|
---------------------------|-----------------------------|
---------------------------|-----------------------------|
---------------------------|-----------------------------|
---------------------------|-----------------------------|


                                   |---3---|                
  E  E  E  E  E  E  E  E      Q    E   E   E  E  E   E  E   
--8------------------------|-------------------------------|
--7--5-----5-----------7b--|--L----7p--5h--7--5------5--5--|
-----5-----5---------------|---------------------7b--------|
---------------------------|-------------------------------|
-----------------5---------|-------------------------------|
---------------------------|-------------------------------|


  E   E  E  E    E  E  E  E     Q    Q    Q    E  E   
-----------------------------|-----------------------|
------5--5-------------------|-----------------5-----|
--7b--------7br--5-----------|-----------------6-----|
--------------------7--7--7--|--7----7----7-------7--|
-----------------------------|-----------------------|
-----------------------------|-----------------------|


  E  E  E  E  S S  S S  S  S  S S    S S S  S  S  S S S  S  S  S S S S S  S  
--------------8-9-10-9-12-12-10-9-|--8-8-9-10-12-10-9-8-10-12-10-9-8-8-9-10-|
--5--5----------------------------|-----------------------------------------|
--5--6----------------------------|-----------------------------------------|
--------7--7----------------------|-----------------------------------------|
----------------------------------|-----------------------------------------|
----------------------------------|-----------------------------------------|


   S  S S S  S  S  S  S  S  S  S  S  S  S  S  S  
--12-10-9-8-10-12-13-12-10-12-13-14-14-13-12-13-|
------------------------------------------------|
------------------------------------------------|
------------------------------------------------|
------------------------------------------------|
------------------------------------------------|


   S  S  S  E   Q     Q     E.      E   H.            E   
--14-16-16-17--17----17\----L---|------13~---------------|
--------------------------------|------14~---------------|
--------------------------------|------12~---------------|
--------------------------------|--13--13~---------------|
--------------------------------|------------------------|
--------------------------------|------------------------|


   E   E  E   Q     Q    E      E   E  E   Q     Q    E   
--12--12-----12\------------|--12--12-----12\------------|
--13--13-----13\------------|--13--13-----13\------------|
--11--11-----11\------------|--11--11-----11\------------|
--12--12-----12\------------|--12--12-----12\------------|
----------------------------|----------------------------|
----------------------------|----------------------------|


   E  E  Q    Q    Q       E  Q.     Q    Q       H.            E  E   
------------------------|----------------------|----------------------|
--/7--7--7----6----6----|--5--5------4----4----|--3~------------3--2--|
--/6--6--6----5----5----|--4--4------3----3----|--2-------------2--1--|
--/7--7--7----6----6----|--5--5------4----4----|--3-------------3--2--|
------------------------|----------------------|----------------------|
------------------------|----------------------|----------------------|


        |---3--|                                              
  E  E  E   E  E  Q     E    E     E  E   E  E  E   E  E  E   
---------------5--8b----5-------|--5--5------5--5------5--5--|
--L--0--5h--7--------------/10--|--------10--------10--------|
--L-----------------------------|----------------------------|
--L-----------------------------|----------------------------|
--------------------------------|----------------------------|
--------------------------------|----------------------------|


  E  E  E  H        E      Q    Q    E  Q.         Q    Q    Q    Q             
--5--------0--------L\--|-----------------------|----------------------|-------|
-----------5--------L\--|-----------------------|--3-------------------|-------|
-----------7--------L\--|--2--------------------|--2--------------8----|-------|
--------6--6--------L\--|--2--------------------|--0--------------7----|-------|
-----7-----7--------L\--|--0------------3b------|-----------------6----|-------|
------------------------|-----------------------|----------------------|-------|


    E   E    E   E   E  E   E  E     E  E  E  E  E  E  E  E   
----------------------------------|--------------------------|
----------------------------------|--------------------------|
--/12--12s--10--10s--9--9s--7--7--|--2--2--4--2--2--2--4--2--|
--/11--11s---9---9s--8--8s--6--6--|--0--0--0--0--0--0--0--0--|
--/12--12s--10--10s--9--9s--7--7--|--------------------------|
----------------------------------|--------------------------|


  E  E  E  E  E  E  E  E     E  E  E  E  E  E  E  E   
--------------------------|--------------------------|
--------------------------|--------------------------|
--2--2--4--2--2--2--4--2--|-----2-----2-----2-----2--|
--0--0--0--0--0--0--0--0--|--2--2-----2--2--2--2--2--|
--------------------------|--0-----------0-----3-----|
--------------------------|--------3-----------------|


  E  E  E  E  E  E  E  E     E  E  E  E  E  E  E  E   
--------------------------|--------------------------|
--------------------------|--------------------------|
-----2-----2-----2-----2--|--------------------------|
--2--2-----2-----2-----2--|-----2-----2-----2-----2--|
--0-----------------------|-----2-----2-----2-----2--|
--------3-----0-----3-----|--0-----3-----0-----3-----|


  E  E  E  E  E  E  E  E     E  E  E  E  E  E  E  E     E  E  E  E  H         
--------------------------|--------------------------|-----------------------|
--------------------------|--------------------------|-----------------------|
--------------------------|-----2-----2-----2-----2--|-----2-----2-----------|
-----2-----2-----2-----2--|--2--2--2--2--2--2--2--2--|--2--2--2--2--L--------|
-----2-----2-----2-----2--|--0-----3-----0-----3-----|--0-----3--0--L--------|
--0-----3-----0-----3-----|--------------------------|-----------------------|


         |---3--|  |---3--|   |---3--|   
  E  E   E  E   E  E   E  E   E  E   E   
---------3------3------3------3------3--|
-----3b-----3b-----3b-----3b-----3b-----|
----------------------------------------|
----------------------------------------|
----------------------------------------|
----------------------------------------|


  |---3--|   |---3--|  |---3---|    |--3--|   
  E   E  E   E  E   E  E    E  E    E  E  E   
------3------3------3-------3-------3-----3--|
--3b-----3b-----3b-----3br-----3br-----3-----|
---------------------------------------------|
---------------------------------------------|
---------------------------------------------|
---------------------------------------------|


  |---3--|   |---3--|  |---3--|   |---3--|   
  E   E  E   E  E   E  E   E  E   E  E   E   
------3------3------3------3------3------3--|
--3b-----3b-----3b-----3b-----3b-----3b-----|
--------------------------------------------|
--------------------------------------------|
--------------------------------------------|
--------------------------------------------|


  |---3--|   |---3--|  |---3---|    |--3--|   
  E   E  E   E  E   E  E    E  E    E  E  E   
------3------3------3-------3-------3-----3--|
--3b-----3b-----3b-----3br-----3br-----3-----|
---------------------------------------------|
---------------------------------------------|
---------------------------------------------|
---------------------------------------------|


  |----3---|    |----3---|   |----3---|    |----3---|    
  E    E   E    E   E    E   E    E   E    E   E    E    
-------8~-------8~-------8~-------8~-------8~-------8~--|
--8b~------8b~------8b~------8b~------8b~------8b~------|
--------------------------------------------------------|
--------------------------------------------------------|
--------------------------------------------------------|
--------------------------------------------------------|


  |----3---|     |-------3-------|  |----3----|    
  E    E   E     E   H           E  E   E     E    
-------8~--------8~--------------------------15~--|
--8b~------8br~------8br~--------------15b~-------|
--------------------------------------------------|
--------------------------------------------------|
--------------------------------------------------|
--------------------------------------------------|


   |-----3----|     |-----3----|                          
   E     E    E     E    E     E    E     E    E     E    
--------15~--------15~--------15~--------15~-------------|
--15b~-------15b~-------15b~-------15b~-------15b~-------|
----------------------------------------------------18b--|
---------------------------------------------------------|
---------------------------------------------------------|
---------------------------------------------------------|


  E   E   E    E   E    E   E    E      E    E   E    E   E    E   E   E   
------------------------------------|-------------------------------------|
-----16-------15-------14-------13--|-------12-------11-------10-------9--|
--L------17b------16b------15b------|--14b------13b------12b------11b-----|
------------------------------------|-------------------------------------|
------------------------------------|-------------------------------------|
------------------------------------|-------------------------------------|


                                                |--3--|   
  E  E  E  Q     E  Q        E  E  E  Q     E   E  E  E   
-------------------------|-------------------------------|
-------------------------|--/5---------------------5--7--|
--5----------------------|--/5--6-----------5h--6--------|
-----7-----7\------------|------------7\-----------------|
-------------------------|-------------------------------|
-------------------------|-------------------------------|


                                                 |--3--|   
  Q    Q     E    E  E  E     E  E  E  Q     E   E  E  E   
--5----7b----7br--5-----5--|------------------------------|
---------------------7-----|------------------------5--7--|
---------------------------|-----6-----6\----5h--6--------|
---------------------------|-----7-----7\-----------------|
---------------------------|-----7-----7\-----------------|
---------------------------|------------------------------|


                                                 |--3--|   
  Q    Q     E    E  E  E     E  E  E  Q     E   E  E  E   
--5----7b----7br--5-----5--|------------------------------|
---------------------7-----|------------------------5--7--|
---------------------------|-----6-----6\----5h--6--------|
---------------------------|-----7-----7\-----------------|
---------------------------|-----7-----7\-----------------|
---------------------------|------------------------------|


                                                 |--3--|   
  Q    Q     E    E  E  E     E  E  E  Q     E   E  E  E   
--5----7b----7br--5-----5--|------------------------------|
---------------------7-----|-----5-----5\-----------5--7--|
---------------------------|-----5-----5\----5h--6--------|
---------------------------|-----4-----4\-----------------|
---------------------------|-----5-----5\-----------------|
---------------------------|------------------------------|


  Q    Q     E    E  E  E     E  E  E  Q     E  E  E   
--5----7b----7br--5-----5--|--------------------------|
---------------------7-----|-----------------5--5--5--|
---------------------------|-----6-----6\-------------|
---------------------------|-----7-----7\-------------|
---------------------------|-----7-----7\-------------|
---------------------------|--------------------------|


  Q     E  E   E  E  E   E     E  Q      E  E    E  Q     
----------------------------|----------------------------|
--------5------5--5------5--|--5-------------------------|
--7b-------7b--------7b-----|-----7br----5--7br--5-------|
----------------------------|-----------------------7----|
----------------------------|----------------------------|
----------------------------|----------------------------|


  Q    Q    E  E  Q        E  E  E  H        E     E  E  E  E  E  E  E  E   
------------------------|-----------0-----------|--------------------------|
------------------------|-----------0-----------|--------------------------|
------------5--6--------|-----------1-----------|-----2-----2-----2-----2--|
--7----7----------7\----|-----2-----2-----------|--2--2-----2--2--2--2--2--|
------------------------|-----2-----2-----------|--0-----------0-----3-----|
------------------------|--0-----0--0-----------|--------3-----------------|


  E  E  E  E  E  E  E  E      H.           Q               
---------------------------|----------------------|-------|
-----------------------7---|--L------------7\-----|-------|
-----2-----2-----2-----6---|--L------------6\-----|-------|
--2--2-----2--2--2--2--7~--|--L------------7\~----|-------|
--0-----------0-----3------|----------------------|-------|
--------3------------------|----------------------|-------|


  Q     H.                E   E   E    H          E     Q     H.             
-------17~------------|--17~-----16~--17\~-----------|-------17~------------|
-------14-------------|--14------13---14\------------|-------14-------------|
-------16-------------|--16------15---16\------------|-------16-------------|
-------17-------------|--17------16---17\------------|-------17-------------|
----------------------|------------------------------|----------------------|
----------------------|------------------------------|----------------------|


   E   E   E    H          E     E  E  E  E  E  E  E  E   
--17~-----16~--17\~-----------|--------------------------|
--14------13---14\------------|--------------------------|
--16------15---16\------------|-----2-----2-----2-----2--|
--17------16---17\------------|--2--2-----2--2--2--2--2--|
------------------------------|--0-----------0-----3-----|
------------------------------|--------3-----------------|


  E  E  E  E  E  E  E  E     E  E  E  E  E  E  E  E   
--------------------------|--------------------------|
--------------------------|--------------------------|
-----2-----2-----2-----2--|-----2-----2-----2-----2--|
--2--2-----2--2--2--2--2--|--2--2-----2--2--2--2--2--|
--0-----------0-----3-----|--0-----------0-----3-----|
--------3-----------------|--------3-----------------|


  E  E  E  E  E  E  E  E     E  E  E  E  E  Q    E     E  E  E  Q     Q.      
--------------------------|-----5--5--x--4--5----5--|--5--x--4--5\-----------|
--------------------------|-----7--7--x--6--7----7--|--7--x--6--7\-----------|
-----2-----2-----2-----2--|-----6--6--x--5--6----6--|--6--x--5--6\-----------|
--2--2-----2--2--2--2--2--|-----7--7--x--6--7----7--|--7--x--6--7\-----------|
--0-----------0-----3-----|-------------------------|------------------------|
--------3-----------------|-------------------------|------------------------|


  E  E  E  E  E  E  Q       E  E  E  E  E  E  E  E    
-----------0-------------|-----------0-----------3b--|
-----------------0-------|-----------------0---------|
-----1-------------------|-----1---------------------|
-------------------------|---------------------------|
-------------------------|---------------------------|
--0-----0-----0-----0----|--0-----0-----0-----0------|


  E  E  E  E  E  E  E  E     E  E  E  E  E  E  E  E     E  E  E  E  E  Q    E   
--L--2-----0-----------0--|--------------------------|-----5--5--x--4--5----5--|
-----------------0--------|-----0--------------------|-----7--7--x--6--7----7--|
--------------------------|-----------1--------------|-----6--6--x--5--6----6--|
--------------------------|-----------------2--------|-----7--7--x--6--7----7--|
--------------------------|--------------------------|-------------------------|
--0-----0-----0-----0-----|--0-----0-----0-----0-----|-------------------------|


  E  E  E  Q.      E  E     E  E  E  E  E  Q    E     E  E  E  H        E   
--5--x--4--5\------------|-----5--5--x--4--5----5--|--5--x--8--7-----------|
--7--x--6--7\------------|-----7--7--x--6--7----7--|--7--x--8--7-----------|
--6--x--5--6\------6--6--|-----6--6--x--5--6----6--|--6--x--8--7-----------|
--7--x--6--7\------7--7--|-----7--7--x--6--7----7--|--7--x--7--6-----------|
-------------------7--7--|-------------------------|--------8--7-----------|
-------------------------|-------------------------|-----------------------|


  Q    Q    E  Q.         Q    Q    Q    Q       W                 
-----------------------|----------------------|-------------------|
-----------------------|--3-------------------|-------------------|
--2--------------------|--2--------------8----|-------------------|
--2--------------------|--0--------------7----|-------------------|
--0------------3b------|-----------------6----|-------------------|
-----------------------|----------------------|-------------------|


                      E  E  E  E  E  E  E  E     E  E  E  E  E  E  E  E   
-------------------|--------------------------|--------------------------|
-------------------|-----3-----3-----3-----3--|-----3-----3-----3-----3--|
-------------------|-----2-----2-----2-----2--|-----2-----2-----2-----2--|
-------------------|--0-----------0-----3-----|--0-----------0-----------|
-------------------|--------3-----------------|--------3-----------3-----|
-------------------|--------------------------|--------------------------|


  E  E  E  E  E  E  E  E     E  E  E  E  E  E  E  E   
--------------------------|--------------------------|
--------------------------|--------------------------|
-----2-----2-----2-----2--|-----2-----2-----2-----2--|
--2--2-----2--2--2--2--2--|--2--2-----2--2--2-----2--|
--0-----------0-----3-----|--0-----------0-----------|
--------3-----------------|--------3-----------3-----|


  E  E  E  E  E  E  E  E     E  E  E  E  E  E  E  E   
--------------------------|--------------------------|
--------------------------|--------------------------|
--------------------------|--------------------------|
-----2-----2-----2-----2--|-----2-----2-----2-----2--|
-----2-----2-----2-----2--|-----2-----2-----2-----2--|
--0-----3-----0-----3-----|--0-----3-----0-----3-----|


  E  E  E  E  E  E  E  E     E  E  E  H        E     Q    Q     Q    Q      
--------------------------|-----------0--------L--|------------------------|
--------------------------|-----------0--------L--|------------------------|
-----2-----2-----2-----2--|-----2-----1--------L--|------------------------|
--2--2-----2--2--2--2--2--|--2--2-----2--------L--|--2----------2----------|
--0-----------0-----3-----|--0--------2--------L--|--0----------0----3b----|
--------3-----------------|--------3--0--------L--|-------3b---------------|


  Q    Q     Q    Q        Q    Q     Q    Q        Q    Q     Q    Q      
------------------------|------------------------|------------------------|
------------------------|------------------------|------------------------|
------------------------|------------------------|------------------------|
--2----------2----------|--2----------2----------|--2----------2----------|
--0----------0----3b----|--0----------0----3b----|--0----------0----3b----|
-------3b---------------|-------3b---------------|-------3b---------------|


  Q    Q     Q    Q        Q    Q     Q    Q        Q    Q     Q    Q      
------------------------|------------------------|------------------------|
--3----------3----------|--3----------3----------|------------------------|
--2----------2----------|--2----------2----------|------------------------|
--0----------0----3b----|--0----------0----3b----|--2----------2----------|
-------3b---------------|-------3b---------------|--0----------0----3b----|
------------------------|------------------------|-------3b---------------|


  Q    Q     Q    Q        Q    Q     Q    Q        Q    Q     E  E   E  E   
------------------------|------------------------|----------------4s--5--5--|
------------------------|------------------------|----------------4s--5--5--|
------------------------|------------------------|--------------------------|
--2----------2----------|------------------------|--------------------------|
--0----------0----------|--2----------2----------|--2----------2------------|
-------3b---------3b----|--0----3b----0----3b----|--0----3b----0------------|


                             |---3---|                       
  E  E  E  E  E  E  E  E     E   E   E  E  E   E  E  E  E    
--5--x--5--x--5-----5-----|---------------------------------|
--5--x--8--x--7--x--6--x--|--5h--7p--5----------------------|
--------------------------|-------------7--5h--6-----5--7b--|
--------------------------|-----------------------7---------|
--------------------------|---------------------------------|
--------------------------|---------------------------------|


  E  E    E    E    E     E  E  E     E    Q     E   Q     Q     
-----------------------------------|----------------------------|
-----------------------------------|-----/12----12--11----10----|
--L--7pb--7pb--7pb--7pbr--5--------|-----/12----12--11----10----|
-----------------------------7--5--|--7--/11----11--10-----9----|
-----------------------------------|-----/12----12--11----10----|
-----------------------------------|----------------------------|


  E  E  E  H        E     W                  
--------6--5-----------|--L----------------||
--9-----6--5--------L--|--L----------------||
--9-----5--4--------L--|--L----------------||
--8-----5--4--------L--|--L----------------||
--9--------------------|-------------------||
--------6--5--------L--|--L----------------||




Duration Legend
---------------
W - whole
H - half
Q - quarter
E - 8th
S - 16th
T - 32nd
X - 64th
. - note dotted
|-n-|  - n-tuplets


Tablature Legend
----------------
L - tied note
x - dead note
g - grace note
(n) - ghost note
> - accentuded note
NH - natural harmonic
AH - artificial harmonic
TH - tapped harmonic
SH - semi harmonic
PH - pitch harmonic
h - hammer on
p - pull off
b - bend
br - bendRelease
pb - preBend
pbr - preBendRelease
brb - bendReleaseBend
\n/ - tremolo bar dip
\n - tremolo bar dive
-/n - tremolo bar Release up
/n\ - tremolo bar inverted dip
/n - tremolo bar return
-\n - tremolo bar Release down
S - shift slide
s - legato slide
/ -  slide into from below or out of upwards
\ -  slide into from above or out of downwards
~ - vibrato
W - wide vibrato
tr - trill
TP - tremolo picking
T - tapping
S - slap
P - pop
< - fade in
^ - brush up
v - brush down
Tap to rate this tab
# A B C D E F G H I J K L M N O P Q R S T U V W X Y Z