Song name
# A B C D E F G H I J K L M N O P Q R S T U V W X Y Z

Brian Setzer - Blue Moon Of Kentucky tab

   Blue Moon of Kentucky                               


        Brian Setzer




                    \1/                                                 \1/   
     Q    Q    Q    Q       Q    E  E  E  E  E  E     E  E  E  E  E  E  Q     
E||----------------------|-------------------------|-------------------------|
B||----------------------|-------------------------|--------------------3----|
G||----------------------|-------------------------|--------------------2----|
D||-----------------2----|--2----x--x--x--x--x--x--|--x--x--x--x--x--x--0----|
A||-----------------0----|--0----x--x--x--x--x--x--|--x--x--x--x--x--x-------|
E||----------------------|-------------------------|-------------------------|


                                              \1/                             
  Q    E  E  E  E  E  E     E  E  E  E  E  E  Q       Q    E  E  E  E  E  E   
-------------------------|-------------------------|-------------------------|
--3----------------------|-------------------------|-------------------------|
--2----------------------|-------------------------|-------------------------|
--0----x--x--x--x--x--x--|--x--x--x--x--x--x--2----|--2----x--x--x--x--x--x--|
-------x--x--x--x--x--x--|--x--x--x--x--x--x--0----|--0----x--x--x--x--x--x--|
-------------------------|-------------------------|-------------------------|


                                                                       \1/   
  E  E  E  E  Q    Q       Q    E  E  E  E  E  E     E  E  E  E  E  E  Q     
------------------------|-------------------------|-------------------------|
------------------------|-------------------------|-------------------------|
------------------------|-------------------------|-------------------------|
--x--2--L---------------|-------x--x--x--x--x--x--|--x--x--x--x--x--x--2----|
--x--0--L--0------------|--2----x--x--x--x--x--x--|--x--x--x--x--x--x--0----|
--------------4----2----|--0----------------------|-------------------------|


  Q    E  Q    E  Q       Q    E  Q    E  Q       Q    E  Q    E  Q     
-----------------------|-----------------------|-----------------------|
-----------------------|-----------------------|----------3------------|
----------2------------|----------2------------|----------2------------|
-------2-------2-------|-------2-------2-------|-------0-------0-------|
--0---------------0----|-----------------------|-----------------------|
-----------------------|--3---------------3----|--2---------------2----|


                  \1/                                                      
  Q    E  Q    E  Q       Q    E  E  E  E  E  E     E  E  E  E  Q    Q     
-----------------------|-------------------------|------------------------|
----------3------------|-------------------------|------------------------|
----------2------------|-------------------------|------------------------|
-------0-------0--2----|--2----------------------|--x-----L---------------|
------------------0----|--0----x--x--x--x--x--x--|--x--2--L---------------|
--1--------------------|-------------------------|-----0--L--0--2----4----|


  Q    Q    Q    Q       Q     Q     Q     Q         Q.      E   Q    Q     
--2-------------------|-------/9----10----11----|--/12------12--12----9----|
--2-------------------|-------/9----10----11----|--/12------12--12----9----|
--2-------------------|-------/8-----9----10----|--/11------11--11----8----|
--2-------------------|-------/8-----9----10----|--/11------11--11----8----|
--0-------------------|-------------------------|--------------------------|
----------------------|-------------------------|--------------------------|


  Q    Q    E   E  Q       E   E  H.              Q     Q    E   E     Q     
--5----5----7p--5--L----|--2p--0--L------------|--------5----L---L----------|
--5----5----L---L--L----|---------3------------|--5b---------5b--Lpbr--3----|
--4----4----L---L--L----|--2---L---------------|----------------------------|
--4----4----L---L--L----|----------------------|----------------------------|
------------------------|----------------------|----------------------------|
------------------------|----------------------|----------------------------|


   Q.     E  Q     Q         Q.      E   Q     Q       W                 
--/5------5--5S----9----|--/12------12--12----/8----|--7----------------|
--/5------5--5S----9----|--/12------12--12----/8----|--7----------------|
--/4------4--4S----8----|--/11------11--11----/8----|--7----------------|
--/4------4--4S----8----|--/11------11--11----/7----|--6----------------|
------------------------|---------------------/8----|--7----------------|
------------------------|---------------------------|-------------------|


  E   E   E   E   E   E   Q        Q     E   Q     Q    E   
-----12--12--12--12--12--12----|--12----12--14----12----L--|
-----14--14--13--13--12--12----|--12----12---L-----L----L--|
-----13--13--13--13--13--13----|--11----11---L-----L----L--|
-----12--12--12--12--12--12----|--11----11---L-----L----L--|
-------------------------------|---------------------------|
-------------------------------|---------------------------|


                                                 ^      ^            
  Q    E  Q    Q    E     E   E  H.              Q.     Q    Q.      
--5----5--7----5----L--|--2p--0--L------------|--2------5----L------|
--5----5--L----L-------|---------3------------|--1------4----L------|
--4----4--L----L-------|--2---L---------------|--2------5----L------|
--4----4--L----L-------|----------------------|--1------4----L------|
-----------------------|----------------------|---------------------|
-----------------------|----------------------|---------------------|


   E  E  E  E  E  E  Q       Q    Q     Q    Q       W                  
--/5--------5-------------|--4----7b----7----5----|--5-----------------|
------5-----------5-------|-----------------------|--------------------|
---------6-----------6----|--4----7b----7----6----|--6~----------------|
--/7-----------7----------|-----------------------|--------------------|
--------------------------|-----------------------|--------------------|
--------------------------|-----------------------|--------------------|


       ^     ^     ^        ^     ^     ^   ^     ^                        
  Q    Q     Q     Q        Q     Q     E   Q     E      W                 
-------5-----7-----9----|--10----10----10--10----14---|--L----------------|
-------7-----9----11----|--12----12----12--12----16---|--L----------------|
-------9----11----13----|--14----14----14--14----17~--|--L----------------|
------------------------|-----------------------------|-------------------|
------------------------|-----------------------------|-------------------|
------------------------|-----------------------------|-------------------|


   ^           ^              ^                  
   Q     Q     Q     Q        W                  
--12----------12----------|--12-----------------|
--14----------14----------|--14-----------------|
--14----14----13----13----|--12~----------------|
--------------------------|---------------------|
--------------------------|---------------------|
--------------------------|---------------------|


   ^          ^          ^             ^                  
   |----------3----------|                                
   H          H          H             W                  
--10---------10---------10---------|--14-----------------|
--12~--------12~--------12~--------|--16-----------------|
--14---------14---------14---------|--17~----------------|
-----------------------------------|---------------------|
-----------------------------------|---------------------|
-----------------------------------|---------------------|


   Q     Q     E   Q     E     Q     Q     E   E   Q     
--------------15--15----14--|--L----14------------------|
--17----17----15--15----14--|--L----14----14--14--14----|
--16----16----15--15----14--|--L----14----13--13--13----|
--15----15----14--14----13--|--L----13----12--12--12----|
--16----16----15--15----14--|--L----14----13--13--13----|
----------------------------|---------------------------|


   ^          ^          ^             ^          ^          ^          
   |----------3----------|             |----------3----------|          
   H          H          H             H          H          H          
---9----------9----------9---------|---9----------9----------9---------|
--10---------10---------10---------|--10---------10---------10---------|
--13~--------13~--------13~--------|--12~--------12~--------12~--------|
-----------------------------------|-----------------------------------|
-----------------------------------|-----------------------------------|
-----------------------------------|-----------------------------------|


   ^          ^          ^             ^                  
   |----------3----------|                                
   H          H          H             W                  
---9----------9----------9---------|---9-----------------|
--10---------10---------10---------|--10-----------------|
--11~--------11~--------11~--------|--10~----------------|
--12---------12---------12---------|---9-----------------|
-----------------------------------|---------------------|
-----------------------------------|---------------------|


   E  E  E  E  E  E  Q       Q    Q     Q    Q       H           E   E   Q     
--/5--------5-------------|--4----7b----7----5----|--5------------------------|
------5-----------5-------|-----------------------|-----------------17--19----|
---------6-----------6----|--4----7b----7----6----|--6~--------/18------------|
--/7-----------7----------|-----------------------|---------------------------|
--------------------------|-----------------------|---------------------------|
--------------------------|-----------------------|---------------------------|


   H        H           E  E   E  E  E   E  E  E    
--17-----------------|-----------------------------|
---------------------|-----------------------------|
---------------------|----------------------2--5s--|
---------------------|------------2--4h--5---------|
---------------------|--0--3h--4-------------------|
---------------------|-----------------------------|


  E  S S E  E  E  E  E  E      Q    Q     E  E  E  E     E  E   H.            
---------6--5--3------------|----------------5--7--7--|--L--L/---------------|
-------6----------6--5--4s--|--3----3----/7-----------|----------------------|
--6--6----------------------|-------------------------|----------------------|
----------------------------|-------------------------|----------------------|
----------------------------|-------------------------|----------------------|
----------------------------|-------------------------|----------------------|


                                   |----3---|               
  E  Q    Q.      E  E     E  E    E     E  E  E  E  E  E   
--5---------------5-----|----------------------------------|
-----8---------------8--|--L-------------------7-----5--5--|
----------7b------------|-----7pb--Lpbr--5-----7-----5--6--|
------------------------|-------------------7-----7--------|
------------------------|----------------------------------|
------------------------|----------------------------------|


                   |-----3----|               |---3--|               
  Q     E  E    E  E    E     E  E     E  E   E   E  E  E  E  E  E   
--------7-------5-------------------|--5----------------------------|
--7b-------7pb-----7pb--Lpbr--5-----|-----8p--7p--5-----7-----5--5--|
---------------------------------7--|-----8p--7p--5-----7-----5--6--|
------------------------------------|----------------7-----7--------|
------------------------------------|-------------------------------|
------------------------------------|-------------------------------|


  E  E  E  E  E  E  E  E     E  E  E  E  E  E  E  E   
--------------------------|--------------------------|
-----5--5-----7--5-----5--|--5-----7--5-----5-----5--|
-----5--6-----7--6-----5--|--6-----7--6-----5-----6--|
--------------------------|--------------------------|
--0--------0--------0-----|-----0--------0-----0-----|
--------------------------|--------------------------|


  E  E   E  E  E   E  E  E     E   E  E  E   E  E  E  E    
----------------------------|-----------------------------|
-----4s--5-----7p--5--------|--4s--5-----7p--5-----5------|
-----4s--5-----7p--5--------|--4s--5-----7p--5-----5--5h--|
--0---------0---------7--0--|---------0---------7---------|
----------------------------|-----------------------------|
----------------------------|-----------------------------|


  Q    Q    E  E  Q       E   E  E  E  E  E  Q       Q    Q    E  E  Q     
-------5----5----------|--7p--0-----8-----9-------|-----------------------|
---------------5-------|--------------------------|-------5-------7-------|
--6--------------------|--------------------------|-------6-------7-------|
-------7----------7----|---------6-----------6----|-------7----------7----|
-----------------------|--7------------7----------|-----------------------|
--5---------5----------|--------------------------|--5---------5----------|


  H        Q     S   S  S S     E   E   E  E   E   E   E  E   
--5-----------------------9-|--12--11--10--8s--9-------------|
--5--------------------10---|---------------------10---------|
----------------10s-11------|-------------------------11--9--|
----------------------------|--------------------------------|
----------------------------|--------------------------------|
--5-------------------------|--------------------------------|


                       |--3-|                    |-3-|               |-3-|  
   E   H         Q     S  S S     S   S  S  S E  S S S S  S  S  S E  S S S  
----------------------------9-|--11p-10p-9p-8--------6-8p-7p-6p-5--------3-|
------10b----------------10---|--------------------7-------------------4---|
--11------------------11------|------------------8-------------------5-----|
------------------------------|--------------------------------------------|
------------------------------|--------------------------------------------|
------------------------------|--------------------------------------------|


                                                   |---3--|   
  S  S  S  E  Q    S E  E  E     E  E  E  E  E  E  E   E  E   
--5p-4p-3p-2--L------2--5--2--|--5--5--2-----2---------------|
------------------------------|-----------5-----5--4p--2-----|
------------------------------|---------------------------5--|
------------------------------|------------------------------|
------------------------------|------------------------------|
------------------------------|------------------------------|


        |---3--|                                           
  E  E  E   E  E  E  E  E  E      Q    E  E   E  E  E  E   
-------------------------------|--------------------------|
--2----------------------------|--------------------------|
-----5--4p--2-----4--2---------|-----------------4--6--4--|
---------------4--------4--3S--|--2----2--4S--6-----------|
-------------------------------|--------------------------|
-------------------------------|--------------------------|


  E  E  E  E   E  E  E  E     E  E  E  E  E  E  E  E   
---------------------------|--5--2--------------------|
---------------------------|--------5--2--------------|
--7--4--6--7p--6--4--------|--------------5--4--2-----|
---------------------6--4--|-----------------------4--|
---------------------------|--------------------------|
---------------------------|--------------------------|


  Q     Q     E  E  E  S  S     E  E   E  E  E  E  S S S S  
-----------------------------|-----------------------------|
-----------------------------|------------------3--5-4-3-2-|
--4b----4b----4--2-----------|------------2--4-------------|
--------------------4--3p-2h-|--0--3h--4-------------------|
-----------------------------|-----------------------------|
-----------------------------|-----------------------------|


  S S S S S S S S S S S S S S S S    E  E  Q    E  E  E  E   
----------------------------------|-------------------------|
----------------------------------|-------------------------|
--5-4-3-2-------------------------|-------------------------|
----------5-4-3-2-----------------|----------------------2--|
------------------5-4-3-2---------|-------------0--3--4-----|
--------------------------5-4-3-2-|--0----------------------|


  Q     Q     E  E  Q        Q    E  E   E     E  E  E     H        Q    Q     
--------------------------|-----------------------------|---------------------|
--------------------------|-----------------------------|----------------2----|
--------------------------|--2----2--4b--Lpbr--2--------|--2--------4---------|
--4b----4b----4--2--------|-----------------------4--2--|---------------------|
--------------------3b----|-----------------------------|---------------------|
--------------------------|-----------------------------|---------------------|


  Q     Q     E   Q.          W                    H         Q      Q      
--------------------------|---------------------|-------------------------|
--3~----3~----3~--3~------|--/7~----------------|--5~--------5~-----------|
--------------------------|---------------------|------------------/6~----|
--------------------------|---------------------|-------------------------|
--------------------------|---------------------|-------------------------|
--------------------------|---------------------|-------------------------|


  W                    Q     Q     E   Q.          H         Q    S  S  S S  
--------------------|--------------------------|--------------------------9-|
--5~----------------|--3~----3~----3~--3~------|--/7~------------------10---|
--L-----------------|--------------------------|--------------------11------|
--------------------|--------------------------|----------------------------|
--------------------|--------------------------|----------------------------|
--------------------|--------------------------|----------------------------|


   S   S  S  S  E  E   E   E   S   S  S  S     E  E   E  Q    E  S S S S  
--12p-10p-9----10--9-----------------------|---------------------------4-|
------------12--------12--10--12p-10p-9----|--10--9------------------5---|
----------------------------------------11-|---------11--9---------6-----|
-------------------------------------------|-----------------------------|
-------------------------------------------|-----------------------------|
-------------------------------------------|-----------------------------|


  E   E   E  E  E  E  E  E      E  E  E  H         E   
--7p--6p--5-----5--4---------|------------------------|
-------------7--------7--4h--|--5--6--7--8------------|
-----------------------------|--------------------/9--|
-----------------------------|------------------------|
-----------------------------|------------------------|
-----------------------------|------------------------|


  S S S S S S E    S  S  S S S S E      H.           E  E    
-------------------------------------|----------------------|
------------------10-10-10-9-8-7-6~--|--L-------------------|
--9-9-9-8-7-6-6~---------------------|------------------5h--|
-------------------------------------|----------------------|
-------------------------------------|----------------------|
-------------------------------------|----------------------|


  Q    Q    E  E  Q       E   E  E  E  E  E  Q       Q    Q    E  E  E  E    
-------5----5----------|--7p--0-----8-----9-------|-------------------------|
---------------5-------|--------------------------|-------5-------7---------|
--6--------------------|--------------------------|-------6-------7-----5h--|
-------7----------7----|---------6-----------6----|-------7----------7------|
-----------------------|--7------------7----------|-------------------------|
--5---------5----------|--------------------------|--5---------5------------|


  E  Q    H          E     Q    Q    E  E  E  E     E  E  E  E  E  E  Q     
-----5------------------|-------5----5--------8--|-----7-----5-------------|
----------7br-----------|---------------5--------|-----------------5-------|
--6---------------------|------------------------|-------------------------|
------------------------|-------7----------7-----|--------7-----------7----|
------------------------|------------------------|-------------------------|
--5---------------------|--5---------5-----------|--5-----------5----------|


  Q    Q    E  E  E  E     E  E  E  E  E  E  E  E      E  E  E  E  E  E  Q     
-------5----5-----------|-----------5---------------|-----5-----------5-------|
---------------5--------|---------------------------|-------------------------|
---------------------4--|-----4-----------4-----5h--|--6--------6-------------|
-------4----------4-----|---------------------------|--------7-----------7----|
--5---------------------|---------------------------|-------------------------|
------------5-----------|--3-----3-----3-----3------|--5-----------5----------|


    E  E  E   E  E  E  Q       E  E  E  E  E  E  E  E    
---/9--9-----12-----9-------|-----7-----------0-----8b--|
--/10-----------------------|---------------------------|
---/9-----9------9-----9----|-----------7---------------|
----------------------------|--------6-----------6------|
----------------------------|--7-----------7------------|
----------------------------|---------------------------|


  E  E  E  E  E  E  Q       Q     E  E   E  Q     E   
-----0-------------------|-------17-----16-------15--|
-----------------7-------|-------14-----13-------12--|
-----------7-------------|-------16-----15-------14--|
--------6-----------6----|-------17-----16-------15--|
--7-----------7----------|---------------------------|
-------------------------|---------------------------|


  E   E  E   E   E  E   E  E     Q     E  E   E  Q     E   
-----15-----15--14-----14-----|-------13-----12-------11--|
-----12-----12--11-----11-----|-------10------9--------8--|
-----14-----14--13-----13-----|-------12-----11-------10--|
-----15-----15--14-----14-----|-------13-----12-------11--|
------------------------------|---------------------------|
------------------------------|---------------------------|


  E   E  E   E   E  E   E  E     Q    Q    E  E  E  E    
-----11-----11--10-----10-----|-------5----5------------|
------8------8---7------7-----|---------------5---------|
-----10-----10---9------9-----|---------------------0h--|
-----11-----11--10-----10-----|-------7----------7------|
------------------------------|-------------------------|
------------------------------|--5---------5------------|


  Q    E  E  E  Q    E      Q    E  E  E  E  Q       Q    E  E  E  Q     E   
-------------------------|----------5-------------|----------5--------------|
-------------------------|----------------5-------|----------------5--------|
--1----2-----3--4----5h--|--6---------------------|--6------------------11--|
-------------------------|-------7-----------7----|-------7-----------------|
-------------------------|------------------------|-------------------------|
--0----2-----3--4--------|--5----------5----------|--5----------5-----------|


        |---3---|   |---3---|   |---3---|   
  Q     E   E   E   E   E   E   E   E   E   
--------9p--0-------9p--0-------9p--0------|
-------10p--0------10p--0------10p--0------|
--L------------11----------11----------11--|
-------------------------------------------|
-------------------------------------------|
-------------------------------------------|


   |---3---|   |---3---|   |---3---|         
   E   E   E   E   E   E   E   E   E   Q     
---9p--0-------9p--0-------9p--0-------9----|
--10p--0------10p--0------10p--0------10----|
----------11----------11----------11--------|
--------------------------------------------|
--------------------------------------------|
--------------------------------------------|


                                                            \1/            
         |---3---|   |---3---|   |---3---|      |---3---|                  
   Q     E   E   E   E   E   E   E   E   E      E   E   E   Q    H         
---------8p--0-------8p--0-------8p--0------|---8p--0-------8----L--------|
--------10p--0------10p--0------10p--0------|--10p--0------10----L--------|
--11------------11----------11----------11--|----------11-----------------|
--------------------------------------------|-----------------------------|
--------------------------------------------|-----------------------------|
--------------------------------------------|-----------------------------|


        |---3---|   |---3---|   |---3---|   
  Q     E   E   E   E   E   E   E   E   E   
--L-----9p--0-------9p--0-------9p--0------|
--L----10p--0------10p--0------10p--0------|
---------------11----------11----------11--|
-------------------------------------------|
-------------------------------------------|
-------------------------------------------|


   |---3---|   |---3---|   |---3---|         
   E   E   E   E   E   E   E   E   E   Q     
---9p--0-------9p--0-------9p--0-------9----|
--10p--0------10p--0------10p--0------10----|
----------11----------11----------11--------|
--------------------------------------------|
--------------------------------------------|
--------------------------------------------|


         |---3---|   |---3---|   |---3---|      |---3---|                     
   Q     E   E   E   E   E   E   E   E   E      E   E   E   E   H         E   
--------12p--0------12p--0------12p--0------|--12p--0------12-------------2--|
---------9p--0-------9p--0-------9p--0------|---9p--0-------9----------------|
--11------------11----------11----------11--|----------11------11\-----------|
--------------------------------------------|--------------------------------|
--------------------------------------------|--------------------------------|
--------------------------------------------|--------------------------------|


  |---3---|  |---3---|         |---3---|                              
  E   E   E  E   E   E   E  E  E   E   E     E  E  E   E  Q.      E   
--5p--4p--2-------------------------------|---------------2----------|
-------------5p--4p--2------2-------------|---------------2----------|
------------------------/5-----5p--4p--2--|--4--2---------2~---------|
------------------------------------------|--------4s--5--2-------0--|
------------------------------------------|---------------0----------|
------------------------------------------|--------------------------|


  |---3--|                                                 
  E   E  E  E  E  E  E  E  E      E  E  E  E  Q     E  E   
------------------------------|---------------------------|
------------------3--2--1--0--|------5--7--5--7b----7--5--|
---------2--4--5--------------|--/6-----------------------|
--3S--4-----------------------|---------------------------|
------------------------------|---------------------------|
------------------------------|---------------------------|


           |----3---|  |--3-|  |---3---|                                
  E   E    E     E  E  Q    E  E   E   E     E   E  E  E   E  E  Q      
--7b--7pb--Lpbr--5----------5-------------|---------7---------5--------|
-----------------------7-------8p--7p--5--|--7S--9-----9S--7-----7\----|
------------------------------------------|----------------------------|
------------------------------------------|----------------------------|
------------------------------------------|----------------------------|
------------------------------------------|----------------------------|


                                                   \1/  
  E   E  E  E   E  E  E  E     E  E  Q     Q    E  E    
---------0---------0--------|----------------------5---|
--2S--3---------------------|----------------------5---|
------------4S--2-----2--0--|----------------------4---|
----------------------------|--2--0----------------4---|
----------------------------|--------2b----0-----------|
----------------------------|--------------------------|


  Q    Q     Q    E   E     E   E  E   E   E   E   E  E   
--L---------12----x--17--|--x--17-----12--12--12--12--5--|
--L---------12----x--17--|--x--17-----12--12--12--12--5--|
--L---------11----x--16--|--x--16-----11--11--11--11--5--|
--L---------11----x--16--|--x--16-----11--11--11--11--4--|
-------------------------|-------------------------------|
-------------------------|-------------------------------|


  Q    Q     Q    E   E     E   E  E   E   E   E   E  E   
--5---------12----x--17--|--x--17-----12--12--12--12--5--|
--5---------12----x--17--|--x--17-----12--12--12--12--5--|
--5---------12----x--17--|--x--17-----12--12--12--12--5--|
--4---------11----x--16--|--x--16-----11--11--11--11--4--|
-------------------------|-------------------------------|
-------------------------|-------------------------------|


  Q    Q     Q    E   E     E   E  E   E   E   E   E  E   
--5---------12----x--17--|--x--17-----12--12--12--12--7--|
--5---------12----x--17--|--x--17-----12--12--12--12--7--|
--4---------11----x--16--|--x--16-----11--11--11--11--7--|
--4---------11----x--16--|--x--16-----11--11--11--11--6--|
-------------------------|-------------------------------|
-------------------------|-------------------------------|


  Q    Q     Q    E   E     E   E  E   E   E   E  E   E   
--7---------14----x--19--|--x--19-----14--14--14-----19--|
--7---------14----x--19--|--x--19-----14--14--14-----19--|
--7---------14----x--19--|--x--19-----14--14--14-----18--|
--6---------13----x--18--|--x--18-----13--13--13-----18--|
-------------------------|-------------------------------|
-------------------------|-------------------------------|


  E   E   E   E   E   E   E   E      E   E   E   E   E   E   E   E   
-----19--18--18--17--17--16--16--|--15--15--14--14--13--13--12--11--|
-----19--18--18--17--17--16--16--|--15--15--14--14--13--13--12--11--|
-----18--17--17--16--16--15--15--|--14--14--13--13--12--12--11--10--|
-----18--17--17--16--16--15--15--|--14--14--13--13--12--12--11--10--|
---------------------------------|----------------------------------|
---------------------------------|----------------------------------|


  E   E  E   E  E  E  E  E     E  E  E  E  E  E  Q     
-----10-----10--9--9--8--8--|--7--7--6--6--5--5--4----|
-----10-----10--9--9--8--8--|--7--7--6--6--5--5--4----|
------9------9--8--8--7--7--|--6--6--5--5--4--4--3----|
------9------9--8--8--7--7--|--6--6--5--5--4--4--3----|
----------------------------|-------------------------|
----------------------------|-------------------------|


   Q      E   E     E   E      Q        E   E  E  E  E  E   E  E   
---------14--------12----------------|---------9-----7---------0--|
--12b--------12pb------12pbr---L\----|--7S--9-----9-----9S--7-----|
-------------------------------------|----------------------------|
-------------------------------------|----------------------------|
-------------------------------------|----------------------------|
-------------------------------------|----------------------------|


              |---3---|                                                         
  E  E  E  E  E   E   E  E  E     Q    Q    Q    Q       Q.     E  Q    Q       
--5--2-------------------------|----------------------|------------------------|
--------5--2-------------------|----------------------|------------------------|
--------------5p--4p--2--------|--2-------------------|------------------------|
-------------------------4--2--|------------0----1----|--2------2--2-----------|
-------------------------------|-------4--------------|-----------------2br----|
-------------------------------|----------------------|------------------------|


                                 Tremolo dive                       
                                 \1/                          -/1   
  H        S  E.  Q       E   E  H.              H.           Q     
-----------------------|----------------------|--------------------|
-----------------------|----------------------|--------------------|
-----------------------|----------------------|--------------------|
-----------------------|----------------------|--------------------|
--0--------2p-0---L----|----------------------|--------------------|
-----------------------|--2p--0--L------------|--L------------0----|


  Q    E  Q.     Q       Q.     E  Q    Q        Q.     E  Q      Q       
----------------------|-----------------------|--------------------------|
----------------------|-----------------------|--------------------------|
----------------------|-----------------------|--------------------------|
----------------------|--2------2--2----------|--------------------------|
--0----0--0------4----|-----------------3b----|--2------2----------------|
----------------------|-----------------------|------------2br----2br----|


  Q    Q     Q    Q       H        Q    Q         H        S  E.  Q     
-----------------------|-----------------------|-----------------------|
-----------------------|-----------------------|-----------------------|
-----------------------|-----------------------|-----------------------|
-------2----/4----2----|-----------2-----------|-----------------------|
-----------------------|--4-------------2br----|--0--------2p-0---L----|
--0--------------------|-----------------------|-----------------------|


         Tremolo dive                                              
         \1/                          -/1                          
  E   E  H.              H.           Q       Q    E  Q.     Q     
----------------------|--------------------|----------------------|
----------------------|--------------------|----------------------|
----------------------|--------------------|----------------------|
----------------------|--------------------|----------------------|
----------------------|--------------------|--0----0--0-----------|
--2p--0--L------------|--L------------0----|-----------------0----|


  Q    Q     Q     Q       W                   Q    Q    Q    Q     
------------------------|-------------------|----------------------|
------------------------|-------------------|----------------------|
------------------------|-------------------|----------------------|
------------------------|-------------------|----------------------|
-------2b----2b----0----|--0----------------|--L----0----2----4----|
--4---------------------|-------------------|----------------------|


  Q    E  Q    E  Q        W                   Q    E  Q    E  Q     
-----------------------|--------------------|-----------------------|
-----------------------|--------------------|-----------------------|
-----------------------|--------------------|-----------------------|
--0----0--0----0--0----|--/4----------------|--2----2--2----2-------|
-----------------------|--------------------|------------------4----|
-----------------------|--------------------|-----------------------|


   W                   Q    E  Q    E  Q        W                 
--------------------|-----------------------|--------------------|
--------------------|-----------------------|--------------------|
--------------------|-----------------------|--------------------|
--/2----------------|--0----0--0----0--0----|--/4----------------|
--------------------|-----------------------|--------------------|
--------------------|-----------------------|--------------------|


  H        Q      Q       Q    Q    Q    Q       Q.     E  Q    Q       
-----------------------|----------------------|------------------------|
-----------------------|----------------------|------------------------|
-----------------------|----------------------|------------------------|
--2--------------------|------------0----1----|--2------2--2-----------|
-----------2br----0----|--2----4--------------|-----------------2br----|
-----------------------|----------------------|------------------------|


                                 Tremolo dive                       
                                 \1/                          -/1   
  H        S  E.  Q       E   E  H.              H.           Q     
-----------------------|----------------------|--------------------|
-----------------------|----------------------|--------------------|
-----------------------|----------------------|--------------------|
-----------------------|----------------------|--------------------|
--0--------2p-0---L----|----------------------|--------------------|
-----------------------|--2p--0--L------------|--L------------0----|


  Q    E  Q.     Q       Q    Q     Q     Q       Q.     E   E  E  E  E   
----------------------|------------------------|-------------------------|
----------------------|------------------------|-------------------------|
----------------------|------------------------|-------------------------|
----------------------|------------------------|----------------2--4--2--|
--0----0--0-----------|-------2b----2b----0----|--0------3h--4-----------|
-----------------0----|--4---------------------|-------------------------|


               \1/                                                 \1/   
  H.           Q       Q    E  E  E  E  E  E     E  E  E  E  E  E  Q     
--------------------|-------------------------|-------------------------|
--------------------|-------------------------|--------------------3----|
--2-----------------|-------------------------|--------------------2----|
---------------2----|--2----x--x--x--x--x--x--|--x--x--x--x--x--x--0----|
---------------0----|--0----x--x--x--x--x--x--|--x--x--x--x--x--x-------|
--------------------|-------------------------|-------------------------|


                                              \1/                             
  Q    E  E  E  E  E  E     E  E  E  E  E  E  Q       Q    E  E  E  E  E  E   
-------------------------|-------------------------|-------------------------|
--3----------------------|-------------------------|-------------------------|
--2----------------------|-------------------------|-------------------------|
--0----x--x--x--x--x--x--|--x--x--x--x--x--x--2----|--2----x--x--x--x--x--x--|
-------x--x--x--x--x--x--|--x--x--x--x--x--x--0----|--0----x--x--x--x--x--x--|
-------------------------|-------------------------|-------------------------|


                                                                       \1/   
  E  E  E  E  Q    Q       Q    E  E  E  E  E  E     E  E  E  E  E  E  Q     
------------------------|-------------------------|-------------------------|
------------------------|-------------------------|-------------------------|
------------------------|-------------------------|-------------------------|
--x--2--L---------------|-------x--x--x--x--x--x--|--x--x--x--x--x--x--2----|
--x--0--L--0------------|--2----x--x--x--x--x--x--|--x--x--x--x--x--x--0----|
--------------4----2----|--0----------------------|-------------------------|


  Q    E  Q    E  Q       Q    E  Q    E  Q       Q    E  Q    E  Q     
-----------------------|-----------------------|-----------------------|
-----------------------|-----------------------|----------3------------|
----------2------------|----------2------------|----------2------------|
-------2-------2-------|-------2-------2-------|-------0-------0-------|
--0---------------0----|-----------------------|-----------------------|
-----------------------|--3---------------3----|--2---------------2----|


                  \1/                                                      
  Q    E  Q    E  Q       Q    E  E  E  E  E  E     E  E  E  E  Q    Q     
-----------------------|-------------------------|------------------------|
----------3------------|-------------------------|------------------------|
----------2------------|-------------------------|------------------------|
-------0-------0--2----|--2----------------------|--x-----L---------------|
------------------0----|--0----x--x--x--x--x--x--|--x--2--L---------------|
--1--------------------|-------------------------|-----0--L--0--2----4----|


  Q    Q    Q    Q       Q     Q     Q     Q         Q.      E   Q    Q     
--2-------------------|-------/9----10----11----|--/12------12--12----9----|
--2-------------------|-------/9----10----11----|--/12------12--12----9----|
--2-------------------|-------/8-----9----10----|--/11------11--11----8----|
--2-------------------|-------/8-----9----10----|--/11------11--11----8----|
--0-------------------|-------------------------|--------------------------|
----------------------|-------------------------|--------------------------|


  Q    Q    E   E  Q       E   E  H.              Q     Q    E   E     Q     
--5----5----7p--5--L----|--2p--0--L------------|--------5----L---L----------|
--5----5----L---L--L----|---------3------------|--5b---------5b--Lpbr--3----|
--4----4----L---L--L----|--2---L---------------|----------------------------|
--4----4----L---L--L----|----------------------|----------------------------|
------------------------|----------------------|----------------------------|
------------------------|----------------------|----------------------------|


   Q.     E  Q     Q         Q.      E   Q     Q       W                 
--/5------5--5S----9----|--/12------12--12----/8----|--7----------------|
--/5------5--5S----9----|--/12------12--12----/8----|--7----------------|
--/4------4--4S----8----|--/11------11--11----/8----|--7----------------|
--/4------4--4S----8----|--/11------11--11----/7----|--6----------------|
------------------------|---------------------/8----|--7----------------|
------------------------|---------------------------|-------------------|


  E   E   E   E   E   E   Q        Q     E   Q     Q    E   
-----12--12--12--12--12--12----|--12----12--14----12----L--|
-----14--14--13--13--12--12----|--12----12---L-----L----L--|
-----13--13--13--13--13--13----|--11----11---L-----L----L--|
-----12--12--12--12--12--12----|--11----11---L-----L----L--|
-------------------------------|---------------------------|
-------------------------------|---------------------------|


                                                 ^      ^            
  Q    E  Q    Q    E     E   E  H.              Q.     Q    Q.      
--5----5--7----5----L--|--2p--0--L------------|--2------5----L------|
--5----5--L----L-------|---------3------------|--1------4----L------|
--4----4--L----L-------|--2---L---------------|--2------5----L------|
--4----4--L----L-------|----------------------|--1------4----L------|
-----------------------|----------------------|---------------------|
-----------------------|----------------------|---------------------|


   E  E  E  E  E  E  Q       Q    Q     Q    Q       W                  
--/5--------5-------------|--4----7b----7----5----|--5-----------------|
------5-----------5-------|-----------------------|--------------------|
---------6-----------6----|--4----7b----7----6----|--6~----------------|
--/7-----------7----------|-----------------------|--------------------|
--------------------------|-----------------------|--------------------|
--------------------------|-----------------------|--------------------|


       ^     ^     ^        ^     ^     ^   ^     ^                        
  Q    Q     Q     Q        Q     Q     E   Q     E      W                 
-------5-----7-----9----|--10----10----10--10----14---|--L----------------|
-------7-----9----11----|--12----12----12--12----16---|--L----------------|
-------9----11----13----|--14----14----14--14----17~--|--L----------------|
------------------------|-----------------------------|-------------------|
------------------------|-----------------------------|-------------------|
------------------------|-----------------------------|-------------------|


   ^           ^              ^                  
   Q     Q     Q     Q        W                  
--12----------12----------|--12-----------------|
--14----------14----------|--14-----------------|
--14----14----13----13----|--12~----------------|
--------------------------|---------------------|
--------------------------|---------------------|
--------------------------|---------------------|


   ^          ^          ^             ^                  
   |----------3----------|                                
   H          H          H             W                  
--10---------10---------10---------|--14-----------------|
--12~--------12~--------12~--------|--16-----------------|
--14---------14---------14---------|--17~----------------|
-----------------------------------|---------------------|
-----------------------------------|---------------------|
-----------------------------------|---------------------|


   Q     Q     E   Q     E     Q     Q     E   Q     E   
--------------15--15----14--|--L----14------------------|
--17----17----15--15----14--|--L----14----14--14\-------|
--16----16----15--15----14--|--L----14----13--13\-------|
--15----15----14--14----13--|--L----13----12--12\-------|
--16----16----15--15----14--|--L----14----13--13\-------|
----------------------------|---------------------------|


   ^          ^          ^             ^          ^          ^          
   |----------3----------|             |----------3----------|          
   H          H          H             H          H          H          
---9----------9----------9---------|---9----------9----------9---------|
--10---------10---------10---------|--10---------10---------10---------|
--13~--------13~--------13~--------|--12~--------12~--------12~--------|
-----------------------------------|-----------------------------------|
-----------------------------------|-----------------------------------|
-----------------------------------|-----------------------------------|


   ^          ^          ^             ^                  
   |----------3----------|                                
   H          H          H             W                  
---9----------9----------9---------|---9-----------------|
--10---------10---------10---------|--10-----------------|
--11~--------11~--------11~--------|--10~----------------|
--12---------12---------12---------|---9-----------------|
-----------------------------------|---------------------|
-----------------------------------|---------------------|


   E  E  E  E  E  E  Q       Q    Q     Q    Q       Q    E  E   E  E  Q     
--/5--------5-------------|--4----7b----7----5----|-------------------------|
------5-----------5-------|-----------------------|----------5------7-------|
---------6-----------6----|--4----7b----7----6----|----------5h--6-----7----|
--/7-----------7----------|-----------------------|-------7-----------------|
--------------------------|-----------------------|--0-----------0----------|
--------------------------|-----------------------|-------------------------|


  Q    Q    E  E  Q       E  E  E  E  E  E  Q       Q    Q     Q    Q     
-----------------------|--------5-----5----------|--4----7b----7----5----|
--5------------5-------|-----------------5-------|-----------------------|
--6------------6-------|-------------------------|--4----7b----7----6----|
-------7----------7----|--------7-----------7----|-----------------------|
--0---------0----------|--0-----------0----------|-----------------------|
-----------------------|-------------------------|-----------------------|


  Q    E  E   E  E  Q       H.           Q       Q    E  Q.     Q     
-------------------------|--------------------|--5----5--5-----------|
----------5------7-------|--5------------5----|-----------------5----|
----------5h--6-----7----|--6-----------------|----------------------|
-------7-----------------|--------------------|----------------------|
--0-----------0----------|--0-----------------|----------------------|
-------------------------|--------------------|----------------------|


  Q    Q     Q     Q        H         H            H         H         
--5----7b----7b----5----|----------------------|------------10--------|
------------------------|--10--------12--------|--13------------------|
------------------------|--10--------10--------|--10--------10--------|
------------------------|--10--------10--------|--10--------10--------|
------------------------|----------------------|----------------------|
------------------------|----------------------|----------------------|


   H         H            H         H            H.            Q     
--10--------12--------|--13--------15--------|--17\-----------------|
--10--------10--------|--10--------15--------|--17\-----------------|
--10--------10--------|--10--------14--------|--16\-----------------|
----------------------|----------------------|--16\-----------------|
----------------------|----------------------|----------------------|
----------------------|----------------------|----------------------|


               \1/                           
  H.           Q       Q    Q    Q    Q      
--------------------|----------------------||
--------------------|----------------------||
--------------------|----------------------||
---------------2----|--2-------------------||
---------------0----|--0-------------------||
--------------------|----------------------||




Duration Legend
---------------
W - whole
H - half
Q - quarter
E - 8th
S - 16th
T - 32nd
X - 64th
. - note dotted
|-n-|  - n-tuplets


Tablature Legend
----------------
L - tied note
x - dead note
g - grace note
(n) - ghost note
> - accentuded note
NH - natural harmonic
AH - artificial harmonic
TH - tapped harmonic
SH - semi harmonic
PH - pitch harmonic
h - hammer on
p - pull off
b - bend
br - bendRelease
pb - preBend
pbr - preBendRelease
brb - bendReleaseBend
\n/ - tremolo bar dip
\n - tremolo bar dive
-/n - tremolo bar Release up
/n\ - tremolo bar inverted dip
/n - tremolo bar return
-\n - tremolo bar Release down
S - shift slide
s - legato slide
/ -  slide into from below or out of upwards
\ -  slide into from above or out of downwards
~ - vibrato
W - wide vibrato
tr - trill
TP - tremolo picking
T - tapping
S - slap
P - pop
< - fade in
^ - brush up
v - brush down
Tap to rate this tab
# A B C D E F G H I J K L M N O P Q R S T U V W X Y Z