Song name
# A B C D E F G H I J K L M N O P Q R S T U V W X Y Z

Brian Tyler - Neela Drifts tab

this is my first tab. I made this by ear because
there were no other tabs online. This is sort of the
first part, it just repeats. email me if you have
any revisions.
Ldcarrera91@aol.com


------------------------------|
------------------------------|
---------------------7--------|
---12--12/9-9p7--7h9---7-7----|
-10------------7----------7---|
------------------------------|      x2


------------------------------|
------------------------------|
-12-11--12-11--12-11--7-9-----|
------------------------------|
------------------------------|
------------------------------|     x2

------------------------------|
------------------------------|
-12-11--12-14--12-11--7-9-----|
------------------------------|
------------------------------|
------------------------------|     x2
Tap to rate this tab
 
# A B C D E F G H I J K L M N O P Q R S T U V W X Y Z